Willie Nelson

Willie Nelson - Blue Eyes Cryin' In The Rain bass tab

Blue Eyes Crying in the Rain

WIllie Nelson

Verse(everything but chromatic notes are half notes)

G--------------------------------------------

D--2---2---2---2---2---2-------------2---2---

A----2---2---2---2---2---0-1-2---2-----2---2-

E------------------------------2---2---------

G--------------------------------------4---------

D--2---2---2---2---2---2-------------2---2-3-4-6-

A----2---2---2---2---2---0-1-2---2---------------

E------------------------------2---2-------------

Chorus

G----------------------4---------------------------

D--7-------7---7-6-4-2---2-2---4-------------2-----

A----7-0-7---7---------------2---2-0-------2---2---

E------------------------------------4-2-0---------

G----------------------------

D--2---2-------4---4-2---2---

A----2---0-1-2---2-----2-----

E----------------------------

Solo Section

G-----------9-------------------------------

D---------9---9---9-----7-8-9---------9-----

A-2-4-6-7-------7---7-9-------9-----7---7---

E-------------------------------7-7---------

G----------------------------------------------

D-------------9---9----7-8-9-------------------

A-2-4-6-7---7---7---7--------9-------6-7-------

E---------7--------------------7-7-9-----7-7-6-

CHorus 2

G-----------------------------------------

D-----7---------7-6-4-2---2-----4---------

A---7---7-4---7---------2---2-2---2-0-3-2-

E-5---------5-----------------------------

G--------------------------------------

D-----2---2---2-------4-4-4-4-2-2-2---2---

A---2---2---2---0-1-2---------------2--------

E-0-------------------------------------

practice it, play it and love it.

daroar@msn.com

Get this song at:  amazon.com sheetmusicplus.com

Share your thoughts

0 Comments found