Willie Nelson

Willie Nelson - Blue Eyes Cryin' guitar tab

^ - Bend

/ - Slide

E----------------------------------------------------------------------------------------------------------

B--------5----7---7/9---9^---------------5-----9^---5-----------------------------------------------

G---4---------------------------------4------------------------------------------------------------------

D---------------------------------------------------------------------------------------------------------

A---------------------------------------------------------------------------------------------------------

E----------------------------------------------------------------------------------------------------------

E---7---6---5-----------------------------5--7-----------7----------------------------------------------

B---9---8---7-------9--7---------------------------9----------------------------------------------------

G-------------------------------4-------------------------------------------------------------------------

D---------------------------------------------------------------------------------------------------------

A---------------------------------------------------------------------------------------------------------

E----------------------------------------------------------------------------------------------------------

E----------------------------------------------------------------------------------------------------------

B-------5--7----7/9---999---10---9-------------5---7---9---9^----7---5----------------------------

G--4------------------------------------4------4---------------------------------------------------------

D---------------------------------------------------------------------------------------------------------

A---------------------------------------------------------------------------------------------------------

E----------------------------------------------------------------------------------------------------------

E----------------------------------------------------------------------------------------------------------

B------5--------7/9---7---9---7------------7/9---7---5------------------------------------------------

G--4------4----------------------------4-----------------------------------------------------------------

D---------------------------------------------------------------------------------------------------------

A---------------------------------------------------------------------------------------------------------

E----------------------------------------------------------------------------------------------------------

E----------------------------------------------------------------------------------------------------------

B--5--55----4--44---3--33---2-------------------------------------------------------------------------

G---------------------------------------------------------------------------------------------------------

D---------------------------------------------------------------------------------------------------------

A---------------------------------------------------------------------------------------------------------

E----------------------------------------------------------------------------------------------------------

Get this song at:  amazon.com sheetmusicplus.com

Share your thoughts

0 Comments found