Willie Nelson

Willie Nelson - Angel Flying Too Close To The Ground2 solo guitar tab

Angel Flying too Close to the Ground

Willie Nelson

Solo:

e-----4-5-5--5-5-5--5--4----------------------------4-5--5-5----------

b-5-7---------------------5-5-5------5/7----------7------5------------

g---------------------------------2------------------------5h6--------

d-------------------------------------------7-7-7---------------------

a---------------------------------------------------------------------

E---------------------------------------------------------------------

e--------------------------------------------5------------------------

b-----3-3-3-----3-3-3-2h3p2------------------5--7--5------------------

g-2-2---------2-------------2-2-2---------------7--5h6----------------

d---------------------------------------------------------------------

a---------------------------------------------------------------------

E-----------------------------------0-0-0-----------------------------

e---------------------------------------------------------------------

b---------------------------------------------------------------------

g--------------------2-2-2-2-2----2-2-1----1-------------1-2-2p1------

d--------------------------------------------5--5-4--4-4---------2-2-2

a------------------0--------------------------------------------------

E-0-0--0--1--2--4-----------------------------------------------------

e---------------------------------------------------------------------

b---------------------------------------------------------------------

g---------------------------------------------------------------------

d---------------------------------------------------------------------

a---------------------------------------------------------------------

E-5-5-5-5-5--5-----5/8-9--9-9-9-9\8--8-8-8\7-7-7-7-0-0----------------

e---------------------------------------------------------------------

b---------------------------------------------------------------------

g---------------------------------------------------------------------

d---------------------------------------------------------------------

a-------------------------0-------------------------------------------

e-0h1-1/2-2-2/3-3-3/4-4-4---------------------------------------------

Get this song at:  amazon.com sheetmusicplus.com

Share your thoughts

0 Comments found