Willie Nelson

Willie Nelson - Always On My Mind lead guitar tab

E---|--------------------------------------------------------|---

B---|----------10--------------------------------------------|---

G---|--11--12------12--11--11--9h11p9--7--9--9^--9--7--6--4--|---

D---|--------------------------------------------------------|---

A---|--------------------------------------------------------|---

E---|--------------------------------------------------------|---

E---|-----------------------------------------------------------------

B---|-------10h12--10~~~----------------------------------------------

G---|---11----------------12--11--12---11~~~--12--11--12--11^--9~~~---

D---|-----------------------------------------------------------------

A---|-----------------------------------------------------------------

E---|-----------------------------------------------------------------

E---|----------------------------|--------7---

B---|----------7-----------------|--7--7------

G---|--6h7--9-----9--7--6--4~~~--|------------

D---|----------------------------|------------

A---|----------------------------|------------

E---|----------------------------|------------

Get this song at:  amazon.com sheetmusicplus.com

Share your thoughts

0 Comments found