Willie Nelson

Willie Nelson - Always On My Mind Bass guitar tab

Tuning : E A D G Time Signature: 4/4

| | | |

|--------------------------------------------------------2-------|

|----------------------------------------------------------------|

|----------------------------------------------------------------|

|----------------------------------------------------------------|

| | | |

|----------------------------------------------------------------|

|0---------------------------------------------------------------|

|----------------------------------------------------------------|

|----------------------------------------------------------------|

| | | |

|2-------------------------------------------------------2---3---|

|----------------------------------------------------------------|

|----------------------------------------------------------------|

|----------------------------------------------------------------|

| | | |

|4-------------------------------2-------------------------------|

|----------------------------------------------------------------|

|----------------------------------------------------------------|

|----------------------------------------------------------------|

| | | |

|0-------------------------------2-----------------------2-------|

|----------------------------------------------------------------|

|----------------------------------------------------------------|

|----------------------------------------------------------------|

| | | |

|----------------------------------------------------------------|

|0---------------------------------------------------------------|

|----------------------------------------------------------------|

|----------------------------------------------------------------|

| | | |

|2-------------------------------------------------------2---3---|

|----------------------------------------------------------------|

|----------------------------------------------------------------|

|----------------------------------------------------------------|

| | | |

|4-------------------------------2-------------------------------|

|----------------------------------------------------------------|

|----------------------------------------------------------------|

|----------------------------------------------------------------|

| | | |

|1---------------------------------------------------------------|

|------------------------4-------2-------------------------------|

|----------------------------------------------------------------|

|----------------------------------------------------------------|

| | | |

|0---------------------------------------------------------------|

|----------------------------------------------------------------|

|----------------------------------------------------------------|

|----------------------------------------------------------------|

| | | |

|----------------------------------------------------------------|

|0---------------------------------------------------------------|

|----------------------------------------------------------------|

|----------------------------------------------------------------|

| | | |

|0---------------------------------------------------------------|

|--------------------------------4-------------------------------|

|----------------------------------------------------------------|

|----------------------------------------------------------------|

| | | |

|--------------------------------7---------------4---------------|

|2---------------------------------------------------------------|

|----------------------------------------------------------------|

|----------------------------------------------------------------|

| | | |

|2-----------------------------------------------0---------------|

|--------------------------------4-------------------------------|

|----------------------------------------------------------------|

|----------------------------------------------------------------|

| | | |

|----------------------------------------------------------------|

|0-------------------------------2---------------4---------------|

|----------------------------------------------------------------|

|----------------------------------------------------------------|

| | | |

|0-------------------------------2-------------------------------|

|----------------------------------------------------------------|

|----------------------------------------------------------------|

|----------------------------------------------------------------|

| | | |

|--------------------------------0---------------2---------------|

|0---------------------------------------------------------------|

|----------------------------------------------------------------|

|----------------------------------------------------------------|

| | | |

|----------------------------------------------------------------|

|0-----------------------0---------------------------------------|

|--------------------------------4-----------------------4-------|

|----------------------------------------------------------------|

| | | |

|----------------------------------------------------------------|

|----------------------------------------------------------------|

|2-----------------------2-------0-----------------------0-------|

|----------------------------------------------------------------|

| | | |

|----------------------------------------------------------------|

|----------------------------------------------------------------|

|----------------------------------------------------------------|

|3-----------------------3-------2-----------------------2-------|

| | | |

|----------------------------------------------------------------|

|----------------------------------------------------------------|

|--------------------------------2-------0-------2---------------|

|0---------------------------------------------------------------|

| | | |

|----------------------------------------------------------------|

|0-----------------------0---------------------------------------|

|--------------------------------4-----------------------4-------|

|----------------------------------------------------------------|

| | | |

|----------------------------------------------------------------|

|----------------------------------------------------------------|

|2-----------------------2-------0-----------------------0-------|

|----------------------------------------------------------------|

| | | |

|----------------------------------------------------------------|

|----------------------------------------------------------------|

|----------------------------------------------------------------|

|3-----------------------3-------2-----------------------2-------|

| | | |

|----------------------------------------------------------------|

|----------------------------------------------------------------|

|--------------------------------0-------------------------------|

|0---------------------------------------------------------------|

| | | |

|----------------------------------------------------------------|

|0---------------------------------------------------------------|

|----------------------------------------------------------------|

|----------------------------------------------------------------|

| | | |

|2-------------------------------------------------------2---3---|

|----------------------------------------------------------------|

|----------------------------------------------------------------|

|----------------------------------------------------------------|

| | | |

|4-------------------------------2-------------------------------|

|----------------------------------------------------------------|

|----------------------------------------------------------------|

|----------------------------------------------------------------|

| | | |

|0-------------------------------2-----------------------2-------|

|----------------------------------------------------------------|

|----------------------------------------------------------------|

|----------------------------------------------------------------|

| | | |

|----------------------------------------------------------------|

|0---------------------------------------------------------------|

|----------------------------------------------------------------|

|----------------------------------------------------------------|

| | | |

|2-------------------------------------------------------2---3---|

|----------------------------------------------------------------|

|----------------------------------------------------------------|

|----------------------------------------------------------------|

| | | |

|4-------------------------------2-------------------------------|

|----------------------------------------------------------------|

|----------------------------------------------------------------|

|----------------------------------------------------------------|

| | | |

|1---------------------------------------------------------------|

|------------------------4-------2-------------------------------|

|----------------------------------------------------------------|

|----------------------------------------------------------------|

| | | |

|0---------------------------------------------------------------|

|----------------------------------------------------------------|

|----------------------------------------------------------------|

|----------------------------------------------------------------|

| | | |

|----------------------------------------------------------------|

|0---------------------------------------------------------------|

|----------------------------------------------------------------|

|----------------------------------------------------------------|

| | | |

|0---------------------------------------------------------------|

|--------------------------------4-------------------------------|

|----------------------------------------------------------------|

|----------------------------------------------------------------|

| | | |

|--------------------------------7---------------4---------------|

|2---------------------------------------------------------------|

|----------------------------------------------------------------|

|----------------------------------------------------------------|

| | | |

|2-----------------------------------------------0---------------|

|--------------------------------4-------------------------------|

|----------------------------------------------------------------|

|----------------------------------------------------------------|

| | | |

|----------------------------------------------------------------|

|0-------------------------------2---------------4---------------|

|----------------------------------------------------------------|

|----------------------------------------------------------------|

| | | |

|0-------------------------------2-------------------------------|

|----------------------------------------------------------------|

|----------------------------------------------------------------|

|----------------------------------------------------------------|

| | | |

|----------------------------------------------------------------|

|0---------------------------------------------------------------|

|----------------------------------------------------------------|

|----------------------------------------------------------------|

| | | |

|2-------------------------------0---------------2---------------|

|----------------4-----------------------------------------------|

|----------------------------------------------------------------|

|----------------------------------------------------------------|

| | | |

|----------------------------------------------------------------|

|0-------------------------------2---------------4---------------|

|----------------------------------------------------------------|

|----------------------------------------------------------------|

| | | |

|--------------------------------2-------------------------------|

|----------------------------------------------------------------|

|----------------------------------------------------------------|

|----------------------------------------------------------------|

| | | |

|----------------------------------------------------------------|

|----0-----------------------------------------------------------|

|----------------------------------------------------------------|

|----------------------------------------------------------------|Added by tabs-database.com and our distinguished partners

Get this song at:  amazon.com sheetmusicplus.com

Share your thoughts

0 Comments found