White Lion

Till Death Do Us Part Tabs



More from White Lion

White Lion Tabs
White Lion Chords
White Lion Lyrics

O============================O===============O=============================O

I'll dedicate this song to a friend..."WHE".Sometimes im too weak and shy to say those

to her,so i hope this song will do the job for me...in some ways....

one day if you'll read this message...i know there's miles and miles between us,but i

you to know that...you're so important...so special for me,i thank God that i found

like you...you'll be always in my heart girl!

O============================O===============O=============================O



Well here we go with the song...sound's pretty good...but for any correction just send

an email me at webmaster at tabs-database.com.com





-------------

| \ Slide |

| h Hammer On |

| P Pull Off |

| B Bend |

-------------



Intro: (piano part on guitar)



e |-10--10--10---11-10-----|---8---8---8--13----|--8--8--8--11-10-8-10-|

B |-11--11--11--------13-11|--10--10--10----13--|--9--9--9-------------|

G |---10--10--10-----------|----10--10--10----10|---8--8--8------------|

D |------------------------|--------------------|----------------------|

A |------------------------|--------------------|----------------------|

E |------------------------|--------------------|----------------------|



e |-6--6---8-5-------------|

B |-8--8---6-6-------------|

G |--8--8------------------|

D |------------------------|

A |------------------------|

E |------------------------|



1' and 2' Verse: (piano part on guitar)



e |-10--10--10---11-10-----|---8---8---8--13----|--8--8--8--11-10-8-10-|

B |-11--11--11--------13-11|--10--10--10----13--|--9--9--9-------------|

G |---10--10--10-----------|----10--10--10----10|---8--8--8------------|

D |------------------------|--------------------|----------------------|

A |------------------------|--------------------|----------------------|

E |------------------------|--------------------|----------------------|



e |-6--6---8-5-------------|

B |-8--8---6-6-------------|

G |--8--8------------------|

D |------------------------|

A |------------------------|

E |------------------------|



e |-10--10--10-----10-11-10-------|--8---8---8----------10-11--11--------|

B |-11--11--11--13----------13-11-|-10--10--10----10-13----10--10--------|

G |---10--10----------------------|----10--10--10------------12--12------|

D |-------------------------------|--------------------------------------|

A |-------------------------------|--------------------------------------|

E |-------------------------------|--------------------------------------|



e |-11--10---8--6--8--6--5--3-----|

B |-10--10--10--8--6--6--6--3-----|

G |-------------------------------|

D |-------------------------------|

A |-------------------------------|

E |-------------------------------|





Pre-Chorus:

|(distortion)

e |----------3-------------1--------------------------|

B |--------3-------------1----------------------------|

G |------0--------------------------------------------|

D |--------------------------------8-----------8------|

A |---2--------------3-------------8-----------8------|

E |-3--------------1---------------6--11-10-8--6------|

Take my hand and let me lead the way



Chorus:



e |----------------------------------------------------------------------|

B |----------------------------------------------------------------------|

G |----------------------------------------------------------------------|

D |-8-----3------5------3----------------------8------3--------5-----8-3-|

A |-8-----3------5------3----------------------8------3--------5-----8-3-|

E |-6-----1------3------1-1-3-5-5-6-8-5-7-8-10-6------1--------3-----6-1-|

All...Life...Side...Part Baby...Friend...End...Part



Bridge:



e |------------------------------------------------------|

B |------------------------------------------------------|

G |-6\--11\--13/--10/---6\11\--13/10/--8/-6/-5\-6\-8\-10-|

D |------------------------------------------------------|

A |-4\---9\--11/---8/---4\-9\--11/-8/--6/-4/-3\-4\-6\-8--|

E |------------------------------------------------------|



|-/14-14-16-14-13-14-13-----------------|

|-------------------------16-----14-13---|

|----------------------------------------|

|----------------------------------------|

|----------------------------------------|

|----------------------------------------|



|--14-16-14-13-14-13-------------------------------------|

|--------------------16--16\-----------------------------|

|--------------------------------------------------------|

|----------------------------------------/10-------------|

|------------------------------/12--/15------------------|

|--------------------------------------------------------|





Guitar Solo:



|--------------------------18\17~--|

|----------------------------------|

|--15b--15--14-15-14b--------------|

|----------------------------------|

|----------------------------------|

|----------------------------------|



|----------------------------------------|

|----------------10----------------------|

|----10h12p10-12----12-10-12-10h12p10----|

|-------------------------------------12-|

|----------------------------------------|

|----------------------------------------|



|-----------------------------------|

|-----------------------------------|

|------14-12---12-10---10-8---8-7-5-|

|---10-------8-------7------5-------|

|-----------------------------------|

|-----------------------------------|



|---------------------------------------------------|

|---------------------------------------------------|

|--11-10-11----11-10-11----11-10-11----11-10-11b----|

|-----------10----------10----------10--------------|

|---------------------------------------------------|

|---------------------------------------------------|



|------------------|-------------17-15-18~--|

|--10-11-10b---10--|-/15-14-15--------------|

|------------------|------------------------|

|------------------|------------------------|

|------------------|------------------------|

|------------------|------------------------|



|-15--15-17-18-17---22-20-18---------------|

|----------------------------18~~~~--------|

|------------------------------------------|

|------------------------------------------|

|------------------------------------------|

|------------------------------------------|



note: After the solo there's another piano part in the chorus,

listen to the song to get the right timing.



Chorus:



e |---10------13----------10------13---------8-------13------|

B |-11--11--11--11------11--11--11--11-----10--10--10--10----|

G |-------10------10----------10------10---------10------10--|

D |----------------------------------------------------------|

A |----------------------------------------------------------|

E |----------------------------------------------------------|

All thru you life...



e |---8-------13----------10------15----------10------15-----|

B |-10--10--10--10------11--11--11--11------11--10--11--10---|

G |-------10------10----------10------10----------10------10-|

D |----------------------------------------------------------|

A |----------------------------------------------------------|

E |----------------------------------------------------------|

...Till death do us Part



e |-----------------------------------------------------|

B |-----------------------------------------------------|

G |-----------------------------------------------------|

D |---------------------------8------3--------5-------3-|

A |---------------------------8------3--------5-------3-|

E |-\1-3-5---5-6-8---5-7-8-10-6------1--------3-------1-|

Baby...Friend...End...Part



e |-----------------------------------------------------|

B |-----------------------------------------------------|

G |-----------------------------------------------------|

D |----------------------------11-----6------8-------6--|

A |----------------------------11-----6------8-------6--|

E |-1-3-5---5-6-8---8-10-11-13--9-----4------6-------4--|

All...Life...Side...Part



e |-------------------------------------------------------|

B |-------------------------------------------------------|

A |-------------------------------------------------------|

D |-------------------------------------------------------|

G |-----------------------------11------6-------8------6--|

A |-----------------------------11------6-------8------6--|

E |-4-6-8---8-9-11---8-10-11-13--9------4-------6------4--|

Baby...Friend...End...Part



at 5:10sec there that "solo"



e |--------------------------------------------------------------|

B |-13-14-16---------13-14-16---------11-13-14-------13-13-16----|

G |----------13---------------13---12----------9--------------13-|

D |--------------------------------------------------------------|

A |--------------------------------------------------------------|

E |--------------------------------------------------------------|



That's All...Have Fun! >=)Added by tabs-database.com and our distinguished partners
Get this song at amazon.com      Ebay     Ringtones Ringtones  


Learn to play: Songwriting, Piano, Harmonica, Guitar
Also available at Muzikum: White Lion - Till Death Do Us Part lyrics

Related White Lion Tabs

In The City tabs
When The Children Cry tabs
Broken Heart tabs
Sweet Little Loving tabs
Broken Home tabs
LADY OF THE VALLEY tabs
Tell Me tabs
Youre All That I Need tabs
ALL YOU NEED IS ROCK AND ROLL tabs
Farewell To You tabs
All You Need Is Rock N Roll tabs
Blue Monday tabs
Broken Heart (original Version) tabs
When The Children Cry Pt 3 tabs
Wait tabs
Dirty Women tabs
BABY BE MINE tabs
When The Children Cry2 tabs
All Burn In Hell tabs
Love Don Come Easy tabs


Guitar Tabs









All tabs are property and copyright of their owners. All tabs provided for educational purposes only. Privacy Policy, DMCA