White Lion

Road To Vahalla (solo) Tabs



More from White Lion

White Lion Tabs
White Lion Chords
White Lion Lyrics

tabs-database.com[http://www.tabs-database.com.com/]
TITLE: THE ROAD TO VALHALLA (SOLO)

WRITTEN BY: BRATTA

BY:WHITE LION

ALBUM:FIGHT TO SURVIVE







e----12-12-10-10p8p7-8p7------------------------------------------|

b-----------------------10b10b-rp8p7-8p7-8-p7p5-------------------|

g-9b-------------------------------------------7------------------|

d-----------------------------------------------------------------|

a-----------------------------------------------------------------|

E-----------------------------------------------------------------|





e--------------------------------------------------|

b----7-8-10-8-8h10p8p7-----------------------------|

g-7-9-----------------9----------------------------|

d----------------------9-9p7----------------7-9----|

a---------------------------7--7-9/109-9-10-------|

E--------------------------------------------------|





e--------------------------------------------------|

b-----------7-8------------------------------------|

g-------7--9---7-----------------------------------|

d-9h10p9---------9-7---7---------------------------|

a--------------------10-10-9-10-9-7-9-7-7----------|

E--------------------------------------------------|

Added by tabs-database.com.com and our distinguished partners
Get this song at amazon.com      Ebay     Ringtones Ringtones  


Learn to play: Songwriting, Piano, Harmonica, Guitar
More White Lion lyrics available at Muzikum

Related White Lion Tabs

Wait tabs
Till Death Do Us Part tabs
Dont Say Its Over tabs
You Are All I Need tabs
Love Don Come Easy tabs
Broken Home tabs
When The Children Cry tabs
BABY BE MINE tabs
Youre All I Need tabs
LADY OF THE VALLEY tabs
Sweet Little Loving tabs
All Burn In Hell tabs
Broken Heart tabs
Youre All That I Need tabs
Blue Monday tabs
Dirty Women tabs
Little Fighter tabs
When The Children Cry Pt 3 tabs
Broken Heart (original Version) tabs
Where Do We Run tabs


Guitar Tabs









All tabs are property and copyright of their owners. All tabs provided for educational purposes only. Privacy Policy, DMCA