White Lion

In The City Tabs



More from White Lion

White Lion Tabs
White Lion Chords
White Lion Lyrics

tabs-database.com[http://www.tabs-database.com.com/]
SONG:IN THE CITY

WRIITEN BY:BRATTA,TRAMP

BY:WHITE LION

ALBUM:FIGHT TO SURVIVE







e-----------------------------------------------------------------------------|

b-----------------------------------------------------------------------------|

g-----------------------------2---------------------2-------------------------|

d--4-5-2---4-5-4---4-5-3--3tr5--5-3-2---4-5-4--2-4-5-5-4-2--------------------|

a-2-------2-------2--------------------2-------------------5-4-2-4-2----------|

E-------------------------------------------------------------------5-2-3p2p0-|





e--------------------------------------------------|

b--------------------------------------------------|

g--------------------------------------------------|

d-----------------------0-2------------------------|

a-4-5-4-2------4-5-4-4---------2-3-2----2-5--------|

E-----------------------------------3--------------|





e--------------------------------------------------|

b--------------------------------------------------|

g---------------------------2-4-2-2----------------|

d--4-5-2---4-5-[4]--4-5-3--5-5---5-5-4-5-4-2-------|

a-2-------2--------2------------------------2------|

E--------------------------------------------3p2p0-|





e--------------------------------------------------|

b--------------------------------------------------|

g--------------------------------------------------|

d-----------------------0-2------------------------|

a-4-5-4-2------4-5-4-4---------2-3-2----2-5--------|

E-----------------------------------3--------------|





e--------------------------------------------------|

b--------------------------------------------------|

g--------------------------------------------------|

d-----5--5--5--------------------------------------|

a-3-33-33-33--3-3/5--------------------------------|

E--------------------------------------------------|

Added by tabs-database.com.com and our distinguished partners
Get this song at amazon.com      Ebay     Ringtones Ringtones  


Learn to play: Songwriting, Piano, Harmonica, Guitar
More White Lion lyrics available at Muzikum

Related White Lion Tabs

ALL YOU NEED IS ROCK AND ROLL tabs
BABY BE MINE tabs
Livin On The Edge tabs
Youre All I Need tabs
Little Fighter tabs
Tell Me tabs
Where Do We Run tabs
Till Death Do Us Part tabs
All Burn In Hell tabs
Dont Say Its Over tabs
When The Children Cry tabs
Radar Love tabs
You Are All I Need tabs
Sweet Little Loving tabs
In The City tabs
All You Need Is Rock N Roll tabs
Broken Home tabs
Farewell To You tabs
When The Children Cry2 tabs
Blue Monday tabs


Guitar Tabs









All tabs are property and copyright of their owners. All tabs provided for educational purposes only. Privacy Policy, DMCA