White Lion

Broken Home Tabs



More from White Lion

White Lion Tabs
White Lion Chords
White Lion Lyrics

tabs-database.com[http://www.tabs-database.com.com/]
Song:Broken Home

Artist:White Lion

Written By:Vito Bratta,Mike Tramp

Album:Big Game

Tuning:Standard

Contributed By Dan Zane





Q=70

4/4

Gtr I

H +E S S +S S S S E. S S E. +Q +E. S +H +E S S +S

S S S

|-^3----(3)---------------|------0h2--(2)--(2)-^3|(3)----(3)---------------|

|-^3----(3)-----------3-3-|--------------------^3|(3)----(3)-----------3-3-|

|-^0----(0)---------0-0-0-|----2---------------^0|(0)----(0)---------0-0-0-|

|-^0----(0)---------2-----|-0------------------^0|(0)----(0)---------2-----|

|-^2----(2)-2h3-(3)-------|--------------------^2|(2)----(2)-2h3-(3)-------|

|-------------------------|----------------------|-------------------------|





Verse 1

E. S S E. +Q +E. S +H +E S S +S S S S

|------0h2--(2)--(2)-^3-||-(3)----(3)---------------|

|--------------------^3-||-(3)----(3)-------------3-|

|----2---------------^0-||-(0)----(0)-----------0---|

|-0------------------^0-||-(0)----(0)---------2-----|

|--------------------^2-||-(2)----(2)-2h3-(3)-------|

|-----------------------||--------------------------|





E. S S E. +E S S +S S S S

|------0h2--(2)----------------|

|---------------3--------------|

|----2------------------2---0--|

|-0----------------------------|

|-----------------3-(3)---2----|

|------------------------------|





E. S S E. +E S S +S S S S

|-------------------------0---|

|------0h1--(1)---------------|

|-----------------------------|

|----2------------------2-----|

|-0-------------2h3-(3)-----3-|

|-----------------------------|





E. S S E. +Q +E. S +H +E S S +S S S S

|------0h2--(2)--(2)-^3-|-(3)----(3)----------------|

|--------------------^3-|-(3)----(3)-------------3--|

|----2---------------^0-|-(0)----(0)-----------0----|

|-0------------------^0-|-(0)----(0)---------2------|

|--------------------^2-|-(2)----(2)-2h3-(3)--------|

|-----------------------|---------------------------|





E. S S E. +E S S +S S S S

|------0h2--(2)---------------|

|---------------3-------3---3-|

|----2------------------------|

|-0---------------------------|

|-----------------3-(3)---2---|

|-----------------------------|





E. S S E. +E S S +S S S S E. S S E. +Q +E. S

|-------------------------0---|------0h2--(2)--(2)------|

|------0h1--(1)-------------1-|-------------------------|

|-----------------------0-----|----2--------------------|

|----2------------------------|-0-----------------------|

|-0-------------2h3-(3)-------|-------------------------|

|-----------------------------|---------------------0---|





S S S S S S S S S S S S S S S S E. S S S S S +Q S S S S

|------0-----0-----0-----0---------|------------3-(3)--3-0---0-|

|----0-----0-----0-----0-----0---0-|------3----------------3---|

|-/4-----2-----0-------------------|--------0------------------|

|--------------------4-----2---0---|----2-----2----------------|

|----------------------------------|-3-------------------------|

|----------------------------------|---------------------------|





S S S S S S S S S S S S S S S S H +S S S S S S S S

|-----0-----0---------------------|--------------2p0-------|

|---3-----3-------3-----3---3-----|-0----(0)---------3-----|

|-2-----0-------0-----0-----------|-0----(0)---0-------0---|

|-------------4-----2-----0-------|-0----(0)-4-------------|

|-----------------------------3s2-|-2----(2)---------------|

|---------------------------------|-3----(3)-------------0-|





S S S S S S S S S S S S S S S S E S S S S S S +S S S S S S S S

|------0-----0-----0-----0---------|-------7-----8-(8)-------7---5----|

|----0-----0-----0-----0-----0-----|---------5---------5-----------0--|

|-/4-----2-----0-------------------|---7-5---------------5-----5------|

|--------------------4-----2-------|-----------7-----------7----------|

|------------------------------3p2-|-0--------------------------------|

|----------------------------------|----------------------------------|





S S S S S S S S S S S S S S S S S S S S S S S S S S S S S S E

|-----0-----0----------------------|---------------------------------||

|---3-----3-------3-----3----3---0-|---------------------------------||

|-2-----0-------0-----0------------|-----2-----2-----2-----2---2-----||

|-------------4-----2------0-------|---1-----1-----1-----1-----------||

|------------------------------3---|-2-----0-----3-----2-------------||

|----------------------------------|-------------------------3---2---||





Chorus 1

Q S S S S S S S S +S S E Q S S E S S S S +S S S S

|--------------------------0-----|----------------------------0--|

|-0--------0--0--0-0-0-(0)---0---|-3----------1p0-----------3----|

|-0--0-0h2----7s=5-5-5-(5)-------|-2------0-2-----0-------2------|

|-2-----------9s=7-7-7-(7)-------|-0----4-----------0-(0)--------|

|-2-----------0----0-0-(0)-------|-------------------------------|

|-0------------------------------|-------------------------------|

|

| Gtr II

| Q S S S S +E S S S S S S E. S S S E E S S S S S S

|--------------------------------|-2--2-2-2-2-2---2-2--2--2-2-2--|

|-0--0-0-0-0-(0)---0-0--0--0-0-0-|-3--3-3-3-3-3---3-3--3--3-3-3--|

|-0--0-0-0-0-(0)---0-0--0--0-0-0-|-2--2-2-2-2-2---2-2--2--2-2-2--|

|-2--2-2-2-2-(2)---2-2--2--2-2-2-|-0--0-0-0-0-0---0-0--0--0-0-0--|

|-2--2-2-2-2-(2)---2-2--2--2-2-2-|-------------------------------|

|-0--0-0-0-0-(0)---0-0--0--0-0-0-|-------------------------------|





Q S S S S S S S S +S S E S S S S +E E Q Q

|---------------------------0---|-------------------------||

|-0---------0--0--0-0-0-(0)---0-|--------------------<7>--||

|-0---0-0h2----7s=5-5-5-(5)-----|---0-2-0-(0)--------<7>--||

|-2------------9s=7-7-7-(7)-----|-4-------------4-4--<7>--||

|-2------------0----0-0-(0)-----|-------------------------||

|-0-----------------------------|-------------------------||

|

| E E S S S S +E S S S S E E S S S S E H

|-------------------------------|-2---2-2--2--2-2-2-------||

|-0-0-0-0-0-0-(0)---0-0--0--0-0-|-3---3-3--3--3-3-3-------||

|-0-0-0-0-0-0-(0)---0-0--0--0-0-|-2---2-2--2--2-2-2-------||

|-2-2-2-2-2-2-(2)---2-2--2--2-2-|-0---0-0--0--0-0-0-------||

|-2-2-2-2-2-2-(2)---2-2--2--2-2-|-------------------------||

|-0-0-0-0-0-0-(0)---0-0--0--0-0-|-------------------------||





Verse 2

Gtr I

H +E S S +S S S S E. S S E. +Q E E E. S S E. +E S S +S

S E

|-^3----(3)-----------0---|------0h2--(2)------|-------------------------0-|

|-^3----(3)-------------3-|--------------------|------0h1--(1)-------------|

|-^0----(0)---------0-----|----2---------------|---------------------------|

|-^0----(0)---------------|-0------------------|----2------------------2---|

|-^2----(2)-2h3-(3)-------|----------------3-2-|-0-------------2h3-(3)-----|

|-------------------------|--------------------|---------------------------|





E. S S E. +H H +E S S +S S E E. S S E. +Q S S S S

|------0h2--(2)----|-^3----(3)-----------0-|------0h2--(2)----------|

|------------------|-^3----(3)-------------|------------------3---3-|

|----2-------------|-^0----(0)-------------|----2-------------------|

|-0----------------|-^0----(0)---------2---|-0----------------------|

|------------------|-^2----(2)-2h3-(3)-----|----------------3---2---|

|------------------|-----------------------|------------------------|





E. S S E. +E S S +S S S S E. S S E. +Q +E. S

|-------------------------0---|------0h2--(2)--(2)---||

|------0h1--(1)-------------1-|----------------------||

|-----------------------------|----2-----------------||

|----2------------------2-----|-0--------------------||

|-0-------------2h3-(3)-------|----------------------||

|-----------------------------|--------------------0-||





S S S S S S S S S S S S S S S S

|------0-----0-----0-----0-----------|

|----0-----0-----0-----0-----0---0---|

|-/4-----2-----0---------------------|

|--------------------4-----2---0-----|

|------------------------------------|

|------------------------------------|





E. S S S S S +Q S S S S

|------------3-(3)--3-0---0-|

|------3----------------3---|

|--------0------------------|

|----2-----2----------------|

|-3-------------------------|

|---------------------------|





S S S S S S S S S S S S S S S S H +S S S S S S S S

|-----0-----0---------------------|--------------2p0---------|

|---3-----3-------3-----3---3-----|-0----(0)---------3-------|

|-2-----0-------0-----0-----------|-0----(0)---0-------0-----|

|-------------4-----2-----0-------|-0----(0)-4---------------|

|-----------------------------3s2-|-2----(2)-----------------|

|---------------------------------|-3----(3)-------------0---|





S S S S S S S S S S S S S S S S E S S S S S S +S S S S S S S S

|------0-----0-----0-----0---------|-------7-----8-(8)-------7---5-0----|

|----0-----0-----0-----0-----0-----|---------5---------5-----------0----|

|-/4-----2-----0---------------0---|---7-5---------------5-----5--------|

|--------------------4-----2-----2-|-----------7-----------7------------|

|----------------------------------|-0----------------------------------|

|----------------------------------|------------------------------------|





S S S S S S S S S S S S S S E S S S S S S S S S S S S S S E

|-----0-----0--------------------|----------------------------------|

|---3-----3-------3-----3---3----|----------------------------------|

|-2-----0-------0-----0----------|-----2-----2-----2-----2---2------|

|-------------4-----2-----0------|---1-----1-----1-----1------------|

|-----------------------------3--|-2-----0-----3-----2--------------|

|--------------------------------|-------------------------3---2----|





Chorus 2

Gtr I

Q +S S S S S S S S +S S E Q +S S E S S S S +S S S S

|---------------------------0-----|-----------------------------0---|

|-0---(0)-----0-0-0-0-0-(0)---0---|-3---(3)-----1p0-----------3-----|

|-0---(0)-0h2---7s5-5-5-(5)-------|-2---(2)-0-2-----0---------------|

|-2---(2)-------9s7-7-7-(7)-------|-0---(0)-----------0-(0)-0-------|

|-2---(2)-------0---0-0-(0)-------|---------------------------------|

|-0---(0)-------------------------|---------------------------------|

|

| Gtr II

| E E S S S S E S S +S S S S E E S S E E S S S S S S

|---------------------------------|-2-2--2--2-2-2---2-2--2----2-2-2-|

|-0-0--0--0-0-0-0---0-0-(0)-0-0-0-|-3-3--3--3-3-3---3-3--3----3-3-3-|

|-0-0--0--0-0-0-0---0-0-(0)-0-0-0-|-2-2--2--2-2-2---2-2--2----2-2-2-|

|-2-2--2--2-2-2-2---2-2-(2)-2-2-2-|-0-0--0--0-0-0---0-0--0----0-0-0-|

|-2-2--2--2-2-2-2---2-2-(2)-2-2-2-|---------------------------------|

|-0-0--0--0-0-0-0---0-0-(0)-0-0-0-|---------------------------------|





Q +S S S S S S S S +S S E Q S S E S S S S +S S S S

|---------------------------0-----|---------------------------0--|

|-0---(0)-----0-0-0-0-0-(0)---0---|-3---------1p0-----------3----|

|-0---(0)-0h2---7s5-5-5-(5)-------|-2-----0-2-----0--------------|

|-2---(2)-------9s7-7-7-(7)-------|-0---4-----------0-(0)-0------|

|-2---(2)-------0---0-0-(0)-------|------------------------------|

|-0---(0)-------------------------|------------------------------|

|

| E E S S S S E S S +S S S S E E S S E E S S S S S S

|---------------------------------|-2-2-2-2-2-2---2-2--2--2-2-2--|

|-0-0--0--0-0-0-0---0-0-(0)-0-0-0-|-3-3-3-3-3-3---3-3--3--3-3-3--|

|-0-0--0--0-0-0-0---0-0-(0)-0-0-0-|-2-2-2-2-2-2---2-2--2--2-2-2--|

|-2-2--2--2-2-2-2---2-2-(2)-2-2-2-|-0-0-0-0-0-0---0-0--0--0-0-0--|

|-2-2--2--2-2-2-2---2-2-(2)-2-2-2-|------------------------------|

|-0-0--0--0-0-0-0---0-0-(0)-0-0-0-|------------------------------|





Q +S S S S S S S S +S S E Q +S S E S S S S +S S S S

|---------------------------0-----|-----------------------------0--|

|-0---(0)-----0-0-0-0-0-(0)---0---|-3---(3)-----1p0-----------3----|

|-0---(0)-0h2---7s5-5-5-(5)-------|-2---(2)-0-2-----0--------------|

|-2---(2)-------9s7-7-7-(7)-------|-0---(0)-----------0-(0)-0------|

|-2---(2)-------0---0-0-(0)-------|--------------------------------|

|-0---(0)-------------------------|--------------------------------|

|

| E E S S S S E S S +S S S S E E S S E E S S S S S S

|---------------------------------|-2-2--2--2-2-2---2-2--2--2-2-2--|

|-0-0--0--0-0-0-0---0-0-(0)-0-0-0-|-3-3--3--3-3-3---3-3--3--3-3-3--|

|-0-0--0--0-0-0-0---0-0-(0)-0-0-0-|-2-2--2--2-2-2---2-2--2--2-2-2--|

|-2-2--2--2-2-2-2---2-2-(2)-2-2-2-|-0-0--0--0-0-0---0-0--0--0-0-0--|

|-2-2--2--2-2-2-2---2-2-(2)-2-2-2-|--------------------------------|

|-0-0--0--0-0-0-0---0-0-(0)-0-0-0-|--------------------------------|





Q +S S S S S S S S +S S E S S S S +E E S S S S Q

|---------------------------0-----|-------------------------2---||

|-0---(0)-----0-0-0-0-0-(0)---0---|-----------------------0-----||

|-0---(0)-0h2---7s5-5-5-(5)-------|---0-2-0-(0)---2-----2-------||

|-2---(2)-------9s7-7-7-(7)-------|-4-----------------1---------||

|-2---(2)-------0---0-0-(0)-------|-----------------2-----------||

|-0---(0)-------------------------|-----------------------------||

|

| E E S S S S E S S +S S S S E S S S S E S S S S Q

|---------------------------------|-2---2-2--2--2-2-2-2-2-2-2---||

|-0-0--0--0-0-0-0---0-0-(0)-0-0-0-|-3---3-3--3--3-3-3-3-3-3-3---||

|-0-0--0--0-0-0-0---0-0-(0)-0-0-0-|-2---2-2--2--2-2-2-2-2-2-2---||

|-2-2--2--2-2-2-2---2-2-(2)-2-2-2-|-0---0-0--0--0-0-0-0-0-0-0---||

|-2-2--2--2-2-2-2---2-2-(2)-2-2-2-|-----------------------------||

|-0-0--0--0-0-0-0---0-0-(0)-0-0-0-|-----------------------------||





Gtr I

Q +S S S S E. S +S S E E. S a E S S E. S +S S E

|--------0--------------0---|---------------------------|

|-1--(1)-1-1------3-(3)---3-|------0h1--------1-(1)-0---|

|-0--(0)-----0--------------|----------2--------------0-|

|-2--(2)--------------------|----2-------2--------------|

|-3--(3)-------2------------|-0-------------------------|

|---------------------------|--------------3------------|





E. S E S S E S S +S S S S

|----------------------------|

|------3---------1-(1)-0-----|

|----2---2-----2---------2---|

|----------0-----------------|

|--------------------------2-|

|-2----------1---------------|





Gtr III

~~~

|--3--|

E. S S S S S +E E Q a a Q +S S S S E S S S +E a a E

|----------0---------3--||----------------------------------------------|

|------1h3---3-(3)-3----||--------------------4-5-7-7s8s==7-(7)-7-4-5---|

|----0------------------||-----[4]-----(4)-/4---------------------------|

|-----------------------||---x------------------------------------------|

|-3---------------------||-x--------------------------------------------|

|-----------------------||----------------------------------------------|

|

| Gtr II

| W E S S S S E E S S S S E

|-----------------------||------------------------2-2---2----2------2-2-|

|-----------------------||------4--4-4--4---4-4---2-2---2----2------2-2-|

|-----------------------||------4--4-4--4---4-4---3-3---3----3------3-3-|

|-----------------------||------4--4-4--4---4-4---4-4---4----4------4-4-|

|-----------------------||------2--2-2--2---2-2---4-4---4----4------4-4-|

|-----------------------||------------------------2-2---2----2------2-2-|





Q. E +E S S +E +T T T T

|------------6b7====(6)rh7p6-(6)---(6)-4h6p4-|

|-4------------------------------------------|

|--------------------------------------------|

|--------------------------------------------|

|--------------------------------------------|

|--------------------------------------------|

|

| E S S S S S S E S S S S E

|-4--4-4-4-4-4----4--2---2-2--2--2--2--------|

|-4--4-4-4-4-4----4--2---2-2--2--2--2--------|

|-4--4-4-4-4-4----4--3---3-3--3--3--3--------|

|-6--6-6-6-6-6----6--4---4-4--4--4--4--------|

|-6--6-6-6-6-6----6--4---4-4--4--4--4--------|

|-4--4-4-4-4-4----4--2---2-2--2--2--2--------|





2/4

Q +S S T T T T Q +S E. E. S Q

|-----------------------------------6b7-----|-6------------------||

|-5-----(5)-7b9==7-7rp4h7p4-----(4)---------|------4-2tr3/-------||

|-------------------------------------------|--------------------||

|-------------------------------------------|--------------------||

|-------------------------------------------|--------------------||

|-------------------------------------------|--------------------||

|

| E S S S S E E S S E S S E S S S S S S

|-0-0-0--0--0----0--------2-2-2--2------2-2-|-2--2-2-2-----2-2-2-||

|-0-0-0--0--0----0--------4-4-4--4------4-4-|-2--2-2-2-----2-2-2-||

|-1-1-1--1--1----1--------4-4-4--4------4-4-|-3--3-3-3-----3-3-3-||

|-2-2-2--2--2----2--------4-4-4--4------4-4-|-4--4-4-4-----4-4-4-||

|-2-2-2--2--2----2--------2-2-2--2------2-2-|-4--4-4-4-----4-4-4-||

|-0-0-0--0--0----0--------------------------|-2--2-2-2-----2-2-2-||





4/4

~~

E S S +S S s S E S S +Q

|-/14------------------14s12----17-(17)-----|

|-----15------------15-------14--------------|

|--------14-(14)-14--------------------------|

|--------------------------------------------|

|--------------------------------------------|

|--------------------------------------------|

|

| E S S S S E E S S S S E

|---0--0--0---0---0--0-----0--0--0---0---0-0-|

|---5--5--5---5---5--5-----5--5--5---5---5-5-|

|---2--2--2---2---2--2-----2--2--2---2---2-2-|

|---2--2--2---2---2--2-----2--2--2---2---2-2-|

|---4--4--4---4---4--4-----4--4--4---4---4-4-|

|---0--0--0---0---0--0-----0--0--0---0---0-0-|





S T T S S +Q S T T S S +E. S

|--------------------------------------17-(17)---/24-|

|-15-19p15-----------------14h17p14-------------------|

|----------16s11-(11)--------------14----------------|

|-----------------------------------------------------|

|-----------------------------------------------------|

|-----------------------------------------------------|

|

| E S S S S E E S S E S S

|--2--------2--2---2---2-2--0--------0--0---0---0---0-|

|--3--------3--3---3---3-3--2--------2--2---2---2---2-|

|--4--------4--4---4---4-4--2--------2--2---2---2---2-|

|--4--------4--4---4---4-4--2--------2--2---2---2---2-|

|--2--------2--2---2---2-2--0--------0--0---0---0---0-|

|-----------------------------------------------------|





Gtr IV

W

|---------------------------------------------------|

|---------------------------------------------------|

|---------------------------------------------------|

|---------------------------------------------------|

|---------------------------------------------------|

|---------------------------------------------------|

|

| Gtr III

| |----3-----| |----3-----|

| Q +E E E Q +E E E

|-24b26-----(24)---24------24b26-----(24)---24------|

|-----------------------24-----------------------22-|

|---------------------------------------------------|

|---------------------------------------------------|

|---------------------------------------------------|

|---------------------------------------------------|

|

| Gtr II

| E S S S S E E S S S S E

|---------------------------------------------------|

|--5----5-5---5--5----5-----5----5-5---5--5----5----|

|--4----4-4---4--4----4-----4----4-4---4--4----4----|

|--2----2-2---2--2----2-----2----2-2---2--2----2----|

|---------------------------------------------------|

|--4----4-4---4--4----4-----3----3-3---3--3----3----|





H.=H

E. S E E S T T S S Q

|-----------2----------------------------------2----||

|---------------3-----------------0-----------------||

|-------2-----------------2------------2------------||

|---------------------1-----------------------------||

|--0---------------2--------------------------------||

|---------------------------------------------------||

|

| |--3---|

| Q +E E E S +S +S +S +Q

|-24b26---(24)-24-----------------------------------||

|-----------------22s19-(19)b20-(19)-(19)b20-(19)--||

|---------------------------------------------------||

|---------------------------------------------------||

|---------------------------------------------------||

|---------------------------------------------------||

|

| H H

|--2------------------------------------------------||

|--3------------------------------------------------||

|--2------------------2-----------------------------||

|--0------------------1-----------------------------||

|---------------------2-----------------------------||

|---------------------------------------------------||





Out-Chorus

Gtr I

Q +S S S S S S S S +S S E Q +S S E S S S S +S S S S

|---------------------------0-----|-------------------------------0-|

|-0---(0)-----0-0-0-0-0-(0)---0---|-3-----(3)-----1p0-----------3---|

|-0---(0)-0h2---7s5-5-5-(5)-------|-2-----(2)-0-2-----0-------2-----|

|-2---(2)-------9s7-7-7-(7)-------|-0-----(0)-----------0-(0)-------|

|-2---(2)-------0---0-0-(0)-------|---------------------------------|

|-0---(0)-------------------------|---------------------------------|

|

| Gtr II

| E E S S S S E S S S S S S E S S S S E E S S S S S S

|---------------0---0-0--0--0-0-0-|-2-2-2--2--2-2-3---3-3-----------|

|-0-0--0--0-0-0-0---0-0--0--0-0-0-|-3-3-3--3--3-3-3---3-3--3--3-3-3-|

|-0-0--0--0-0-0-5---5-5--5--5-5-5-|-2-2-2--2--2-2-0---0-0--2--2-2-2-|

|-2-2--2--2-2-2-7---7-7--7--7-7-7-|-0-0-0--0--0-0-0---0-0--0--0-0-0-|

|-2-2--2--2-2-2-------------------|---------------2---2-2-----------|

|-0-0--0--0-0-0-------------------|---------------3---3-3--2--2-2-2-|





Q S S S S S S S S +S S E Q S S E S S S S +S S S S

|-------------------------0-----|-----------------------------0-|

|-0---------0-0-0-0-0-(0)---0---|-3-----------1p0-----------3---|

|-0---0-0h2---7s5-5-5-(5)-------|-2-------0-2-----0-------2-----|

|-2-----------9s7-7-7-(7)-------|-0-----4-----------0-(0)-------|

|-2-----------0---0-0-(0)-------|-------------------------------|

|-0-----------------------------|-------------------------------|

|

| E E S S S S E S S S S S S E S S S S E E S S S S S S

|-------------0---0-0--0--0-0-0-|-2-2-2-2-2-2-3---3-3-----------|

|-0-0-0-0-0-0-0---0-0--0--0-0-0-|-3-3-3-3-3-3-3---3-3--3--3-3-3-|

|-0-0-0-0-0-0-5---5-5--5--5-5-5-|-2-2-2-2-2-2-0---0-0--2--2-2-2-|

|-2-2-2-2-2-2-7---7-7--7--7-7-7-|-0-0-0-0-0-0-0---0-0--0--0-0-0-|

|-2-2-2-2-2-2-------------------|-------------2---2-2-----------|

|-0-0-0-0-0-0-------------------|-------------3---3-3--2--2-2-2-|





Q S S S S S S S S +S S E Q S S E S S S S +S S S S

|-------------------------0-----|-----------------------------0-|

|-0---------0-0-0-0-0-(0)---0---|-3-----------1p0-----------3---|

|-0---0-0h2---7s5-5-5-(5)-------|-2-------0-2-----0-------------|

|-2-----------9s7-7-7-(7)-------|-0-----4-----------0-(0)-0-----|

|-2-----------0---0-0-(0)-------|-------------------------------|

|-0-----------------------------|-------------------------------|

|

| E E S S S S E S S S S S S E S S S S E E S S S S S S

|-------------0---0-0--0--0-0-0-|-2-2-2-2-2-2-3---3-3-----------|

|-0-0-0-0-0-0-0---0-0--0--0-0-0-|-3-3-3-3-3-3-3---3-3--3--3-3-3-|

|-0-0-0-0-0-0-5---5-5--5--5-5-5-|-2-2-2-2-2-2-0---0-0--2--2-2-2-|

|-2-2-2-2-2-2-7---7-7--7--7-7-7-|-0-0-0-0-0-0-0---0-0--0--0-0-0-|

|-2-2-2-2-2-2-------------------|-------------2---2-2-----------|

|-0-0-0-0-0-0-------------------|-------------3---3-3--2--2-2-2-|





Q S S S S S S S S +S S E Q S S E S S S S +S S S S

|-------------------------0-----|-----------------------------0-|

|-0---------0-0-0-0-0-(0)---0---|-3-----------1p0-----------3---|

|-0---0-0h2---7s5-5-5-(5)-------|-2-------0-2-----0-------2-----|

|-2-----------9s7-7-7-(7)-------|-0-----4-----------0-(0)-------|

|-2-----------0---0-0-(0)-------|-------------------------------|

|-0-----------------------------|-------------------------------|

|

| E E S S S S E S S S S S S E S S S S E E S S S S S S

|-------------0---0-0--0--0-0-0-|-2-2-2-2-2-2-3---3-3-----------|

|-0-0-0-0-0-0-0---0-0--0--0-0-0-|-3-3-3-3-3-3-3---3-3--3--3-3-3-|

|-0-0-0-0-0-0-5---5-5--5--5-5-5-|-2-2-2-2-2-2-0---0-0--2--2-2-2-|

|-2-2-2-2-2-2-7---7-7--7--7-7-7-|-0-0-0-0-0-0-0---0-0--0--0-0-0-|

|-2-2-2-2-2-2-------------------|-------------2---2-2-----------|

|-0-0-0-0-0-0-------------------|-------------3---3-3--2--2-2-2-|





Q S S S S S S S S +S S E Q S S E S S S S +S S S S

|-------------------------0-----|-----------------------------0-|

|-0---------0-0-0-0-0-(0)---0---|-3-----------1p0-----------3---|

|-0---0-0h2---7s5-5-5-(5)-------|-2-------0-2-----0-------2-----|

|-2-----------9s7-7-7-(7)-------|-0-----4-----------0-(0)-------|

|-2-----------0---0-0-(0)-------|-------------------------------|

|-0-----------------------------|-------------------------------|

|

| E E S S S S E S S S S S S E S S S S E E S S S S S S

|-------------0---0-0--0--0-0-0-|-2-2-2-2-2-2-3---3-3-----------|

|-0-0-0-0-0-0-0---0-0--0--0-0-0-|-3-3-3-3-3-3-3---3-3--3--3-3-3-|

|-0-0-0-0-0-0-5---5-5--5--5-5-5-|-2-2-2-2-2-2-0---0-0--2--2-2-2-|

|-2-2-2-2-2-2-7---7-7--7--7-7-7-|-0-0-0-0-0-0-0---0-0--0--0-0-0-|

|-2-2-2-2-2-2-------------------|-------------2---2-2-----------|

|-0-0-0-0-0-0-------------------|-------------3---3-3--2--2-2-2-|





H.=H

E E S S S S S S S S S S S S W

|-----------------------------|-!0----*|

|-----------0-0-0---0---0-----|-!0----*|

|-----0-0h2---7s5-----------2-|-!1----*|

|---2---------9s7-7---5---4---|-!2----*|

|-------------0---------------|-!2----*|

|-0---------------------------|-!0----*|

|

| H H W

|-------------0---------------|-!0----*|

|-0-----------0---------------|-!0----*|

|-0-----------5---------------|-!1----*|

|-2-----------7---------------|-!2----*|

|-2---------------------------|-!2----*|

|-0---------------------------|-!0----*|

Added by tabs-database.com.com and our distinguished partners
Get this song at amazon.com      Ebay     Ringtones Ringtones  


Learn to play: Songwriting, Piano, Harmonica, Guitar
Also available at Muzikum: White Lion - Broken Home lyrics

Related White Lion Tabs

Broken Home tabs
Sweet Little Loving tabs
When The Children Cry tabs
All Burn In Hell tabs
You Are All I Need tabs
When The Children Cry Pt 3 tabs
In The City tabs
Broken Heart tabs
BABY BE MINE tabs
Farewell To You tabs
Dirty Women tabs
Radar Love tabs
Broken Heart (original Version) tabs
Youre All That I Need tabs
Love Don Come Easy tabs
Wait tabs
Livin On The Edge tabs
Dont Say Its Over tabs
Road To Vahalla (solo) tabs
Blue Monday tabs


Guitar Tabs









All tabs are property and copyright of their owners. All tabs provided for educational purposes only. Privacy Policy, DMCA