White Lion

Blue Monday Tabs



More from White Lion

White Lion Tabs
White Lion Chords
White Lion Lyrics

Tema: Blue Monday
Artista: Vito Brata - White Lion
Transcriptor: Marcos Pazzarelli

~ = Vibrato
h = Hammer On
p = Pull Off
/ = Arrastar (Slide)
x = Ruido percusivo

Delay, Distorción

No esta del todo bien pero suena muy bien con las bases de teclado.

Am Dm Am
e|-------|-----------------|--------------------------------------------|
B|-PARTE-|-10~~--5~~--1~~--|-3--5--3h5~~~--X--3-5-3-5-3~~---3-5-6-5~~---|
G|--N°1>>|-----------------|--------------------------------------------|
D|-------|-----------------|--------------------------------------------|
A|-------|-----------------|--------------------------------------------|
E|-------|-----------------|--------------------------------------------|
Rápido
|.......................|Am
e|-----------7/8-8/10-10-8-5-8----|----------------------------------------------|
B|--3-----------------------------|-----3h5h6-----3h5h6--------------------------|
G|----5-4~------------------------|-2h4-------2h4-------5p4/7~-9-10~-12-10-9-10~-|
D|--------------------------------|----------------------------------------------|
A|--------------------------------|----------------------------------------------|
E|--------------------------------|----------------------------------------------|

e|--17~--15-13-15-13-12----13-12----------------------|
B|----------------------15-------15-13~~-13/10~~~\(0)-|
G|----------------------------------------------------|
D|----------------------------------------------------|
A|----------------------------------------------------|
E|----------------------------------------------------|
Dm
e|-------------------|-----------------------------------------------|
B|-------------------|-----------------------------------------------|
G|--2/4-7-7-5--4-5~--|--5/7/9/10-10/12\9-9/14\10-10/12\9-9/10\7-9-10-|
D|-------------------|-----------------------------------------------|
A|-------------------|-----------------------------------------------|
E|-------------------|-----------------------------------------------|
1:06
e|---------------|-------------------|----------|----------------------|
B|---------------|-------------------|-PARTE----|-9-/-7/-5--9/7/5--9~~-|
G|---------------|-------------------|--N°2>>>>>|-9-/-7/-5--9/7/5--9~~-|
D|--10-7-7/9-7~--|--9-10-12--12-10-7-|----------|----------------------|
A|---------------|-------------------|----------|----------------------|
E|---------------|-------------------|----------|----------------------|

e|------------------------------------12/13\12--8-7-8-5~-|-------------------|
B|---10~~~~~10/0-------------------15--------------------|-------------------|
G|-9-----------------10-12-14-10~------------------------|--2/4-7-7-5--4-5~--|
D|------------------10-----------------------------------|-------------------|
A|-------------------------------------------------------|-------------------|
E|-------------------------------------------------------|-------------------|

1:31
e|------------------------------------10~~-12~~-12~~\(5)---|
B|---------13-12-13---13-12-13--13-12----------------------|
G|--7-9-10----------10--------10---------------------------|
D|---------------------------------------------------------|
A|---------------------------------------------------------|
E|---------------------------------------------------------|

2:11
e|-------|-------------------------------------------------------------------------|
B|-PARTE-|----------------------------------------15~~~----------------------------|
G|--N°3>>|--b9~~~~-9-7-12~~/14\12---9-9-10--10/12-------10-9-7-10-10/12~~~12/14\12-|
D|-------|-------------------------------------------------------------------------|
A|-------|-------------------------------------------------------------------------|
E|-------|-------------------------------------------------------------------------|

2:32
e|---------------------|-17-15-13-12~-10/8-10/12----------10~~\(1)--|
B|--------------13~~~~-|--------------------------5-6-6/8-----------|
G|--9-9/10-9-10--------|--------------------------------------------|
D|---------------------|--------------------------------------------|
A|---------------------|--------------------------------------------|
E|---------------------|--------------------------------------------|

2:54 3:03
e|----------------------------------------------------------------------------------|
B|-6-5-3---8-8/12\8--------------13~~~----------------------------------------------|
G|-------5-----------9-9/10-9-10---------9-10-12~~~~~~~~--10/12-10-9-9/14-16-17-10~~|
D|----------------------------------------------------------------------------------|
A|----------------------------------------------------------------------------------|
E|----------------------------------------------------------------------------------|

3:14
e|--------------------------------------------------------------------------------|
B|--------------------------------------------------------------------------------|
G|-10-9-7-5-5/12~-12/14--12h14p12h14p12h14p12h14p12--7-9-10----5-7-9~~~~~-9\2--2~~|
D|--------------------------------------------------------------------------------|
A|--------------------------------------------------------------------------------|
E|--------------------------------------------------------------------------------|

3:17
e|-------|-----------------|-------------------------------------------------------|
B|-PARTE-|-10~~--5~~--1~~--|-3--5--3h5~~~--3-5-3-5-3~~---3-5-6-5~~---3---3/5-5-5/6-|
G|--N°4--|-----------------|---------------------------------------5---5-----------|
D|-------|-----------------|-------------------------------------------------------|
A|-------|-----------------|-------------------------------------------------------|
E|-------|-----------------|-------------------------------------------------------|


e|---------------------10--12--16~-15-|-----------------------|----------------------|
B|-6\1--3--5--3h5~~~-10--10-----------|-17-15-13--------------|-18-17-15-18-17-15-18-|
G|------------------------------------|----------16-14-12-14~~|----------------------|
D|------------------------------------|-----------------------|----------------------|
A|------------------------------------|-----------------------|----------------------|
E|------------------------------------|-----------------------|----------------------|
FADE OUT...
FIN
Get this song at amazon.com      Ebay     Ringtones Ringtones  


Learn to play: Songwriting, Piano, Harmonica, Guitar
Also available at Muzikum: White Lion - Blue Monday lyrics

Related White Lion Tabs

Broken Home tabs
You Are All I Need tabs
Youre All That I Need tabs
Tell Me tabs
Dirty Women tabs
Broken Heart tabs
BABY BE MINE tabs
Wait tabs
Farewell To You tabs
Dont Say Its Over tabs
Where Do We Run tabs
Youre All I Need tabs
Sweet Little Loving tabs
Till Death Do Us Part tabs
When The Children Cry2 tabs
In The City tabs
All You Need Is Rock N Roll tabs
When The Children Cry Pt 3 tabs
Little Fighter tabs
LADY OF THE VALLEY tabs


Guitar Tabs









All tabs are property and copyright of their owners. All tabs provided for educational purposes only. Privacy Policy, DMCA