Vulgaires Machins

Vulgaires Machins - A guitar tab

>------------------Tab: Guitare 1---------------------------------------Tab: Guitar 2--------------------- Part B guit 1

|------------------------|------------------------|

|------------------------|------------------------|

|------------------------|------------------------|

|-2~---------------------|------------------------|

|----------------3~------|-------------2~---------|

|------------------------|-3~---------------------|

......Distortion......

|------------------------|-------------------7~---|

|------------------------|-8~-------------8-------|

|------------------------|------------------------|

|-2----------------------|------------------------|

|------------------------|------------------------|

|------------------------|------------------------|

End: "guitar 1 play part D" -->guitar 2 play this (distortion) (2x)

|------------------------|------------------------|

|----0-----0-----0-----0-|----0-----0-----0-----0-|

|-------0-----------0----|-------0-----------0----|

|-2-----------2----------|-2-----------2----------|

|------------------------|------------------------|

|------------------------|------------------------|

|------------------------|------------------------|

|----1-----1-----1-----1-|----1-----1-----1-----1-|

|-------0-----------0----|-------0-----------0----|

|-2-----------2----------|-2-----------2----------|

|------------------------|------------------------|

|------------------------|------------------------|

|------------------------|------------------------|

|----0-----0-----0-----0-|----0-----0-----0-----0-|

|-------0-----------0----|-------0-----------0----|

|-0-----------0----------|-0-----------0----------|

|------------------------|------------------------|

|------------------------|------------------------|

|------------------------|------------------------|

|----0-----0-----0-----0-|----0-----0-----0-----0-|

|------------------------|------------------------|

|-------4-----------4----|-------4-----------4----|

|-6-----------6----------|-6-----------6----------|

|------------------------|------------------------|

Get this song at:  amazon.com sheetmusicplus.com

Share your thoughts

0 Comments found