Vince Gill

Vince Gill - Young Man's Town guitar tab

YOUNG MAN'S TOWN

Vince Gill

(Gill)

Album: Next Big Thing

MCA Records

Submitted by: Christopher R.

Intro:

(E) (E) (E)

E-------------------------------------------------------------------------

B-------------------------------------------------------------------------

G-------------------4/6-----------------------------------------4---------

D--------2/4--4/6--------4/6--6----b4--4p2---2/4/2--2--2------2-----------

A---2/4--------------------------2------------------------2/4-----4/2-----

E----------------------------------------------------------------------0--

(E) You wake up one (A) mornin' and it's passed you (E) by

(A) You don't know (B) when and ya don't know (E) why,

(A) You feel like an old (B) memory hangin (C#m) 'round, (B)

(A) Man you've got to (B) face it it's a young man's (E) town,

E---------------------------0----

B------b7----7/5-----------------

G---4-----4-------4/2-----2------

D-----------------------4--------

A--------------------------------

E--------------------------------

(E) I knew this day was (A) coming all a(E)long,

(A) So why bitch and (B) moan and say they've done you wr(E)ong,

(A) Just teach 'em what ya (B) know pass it on (C#m) down, (B)

(A) Cause man you gotta (B) face it it's a young man's (E) town,

It's a (A) young man's (E) town,

Full of (A) young man's dr(E)eams,

And (A) all God's children gotta (E) learn to spread their (B) wings,

(A) Sometimes you (B) gotta stand back,

And (E) watch 'em burn it (B) to the (C#m) ground, (B)

(A) Even though you (B) built it it's a young man's (E) town,

(SOLO)

(E) (A) (B) (E) (B) (A)

E-----------------------------------------------------------------------------

B---------------------------------------------------------------5---7----7----

G---------1/4--2p1--------------------------------------------4---4---4-------

D-----2/4----------4p2----------------4----4/6--6/4----2--4/6-----------------

A---2------------------b4-----r4--4/6---6-------------------------------------

E-----------------------------------------------------------------------------

(E) (A) (B) (E)

E-4----------------------------------------------------------------------9----

B---7-7-5-4-----4/5----------------------------------------------5---7/9---9--

G-----------6--------6/2---1------------4/6------------------------4-----------

D-----------------------------4p2---4/6-----4p6--6/4p2--4/2--4/6---------------

A------------------------------------------------------------------------------

E------------------------------------------------------------------------------

(E)

E---7-------5----------------

B-----9/7------7--7--5/7-----

G----------------------------

D----------------------------

A----------------------------

E----------------------------

(E) You always seem to (A) be the last to (E) know,

(A) And, man that's just the (B) way that the story (E) goes,

(A) There's nothin you can (B) do when the fields have turned (C#m) brown, (B)

(A) Man you gotta (B) face it it's a young man's (E) town,

It's a (A) young man's (E) town,

Full of (A) young man's dr(E)eams,

And (A) all God's children gotta (E) learn to spread their (B) wings,

(A) Sometimes you (B) gotta stand back,

And (E) watch 'em burn it (B) to the (C#m) ground, (B)

(A) Even though you (B) built it - it's a young man's (E) town,

(A) Sometimes you (B) gotta stand back,

And (E) watch 'em burn it (B) to the (C#m) ground, (B)

(A) Even though you (B) built it - it's a young man's (E) town,

Fade Out...

------any questions, feel free to e-mail me-----

Get this song at:  amazon.com sheetmusicplus.com

Share your thoughts

0 Comments found