Vince Gill

Vince Gill - Whenever You Come Around (with & ) guitar tab

Whenever You Come Around

Vince Gill

tabbed by Matellmon

chords

B X24442

E 022100

F#7sus 242422

F#7 242322

G#m7 353333

F# 244322

INTRO

B E

|---2--------------------|-------------------2------|

|-2~4--------------------|--------------------------|

|-----------------4------|---4----------------------|

|---------------------4--|-4~6-----4----------------|

|------------------------|--------------------------|

|------------------------|--------------------------|

B

|-2--------2-------------|---2----------------------|

|-2-2------2~4-----------|------2---4---------------|

|-4-----4---------2------|-0----------------4-------|

|-4-------------------4--|----------------4~6-------|

|--------------4--2-2---2|-1------------------------|

|------------------------|--------------------------|

THE FACE OF AN ANGEL PRETTY EYES THAT SHINE

I FEEL SO HELPLESS I FEEL JUST LIKE A KID

B E

G|------------------------|--------------------------|

T|------------------------|--------------------------|

R|-4----------------4---4-|-4-------------------4----|

|-4----------------4-----|-4~6-----------------4---4|

1|------------------------|-----------------------7--|

|--------------------7---|--------------------------|

G|------------------11----|---------------------------|

T|12----------------------|-9-------------------12-12~|

R|------------------------|---------------------------|

|------------------------|---------------------------|

2|------------------------|---------------------------|

|------------------------|---------------------------|

I LIE AWAKE AT NIGHT WISHING YOU WER MIND

WHAT IS IT ABOUT YOU THAT MAKES ME KEEP MY FEELINGS HID

B F#7sus F#7

G|-----------------------|---------------------------2|

T|-----------------------|----------------------------|

R|-4---------------------|-4---------------(4)-3------|

|-4---------------------|-2----------------2--4---4--|

1|-6---------------------|-4--------------------------|

|-----------------------|-2--------------------------|

G|-----------------------|-9--------------------------|

T|~7---------------------|----------------------------|

R|-----------------------|----------------------------|

|-----------------------|----------------------------|

2|-----------------------|----------------------------|

|-----------------------|----------------------------|

IM STANDING HERE HOLDING THE BIGGEST HEARTACH IN TOWN

I WISH I COULD TELL YOU BUT THE WORDS CANT BE FOUND

B E

G|-2-------------------2-|------------------------------|

T|-2-4~2-----------------|-------------------------5--7-|

R|-------4----------4----|-4----4------------------4--4-|

|--------4--4--------4--|-6--4-------------------------|

1|-----------------------|--7------------------------7--|

|------------------------------------------------------|

G|--------------------19-|-16---------------------------|

T|-19--------------------|------------------------------|

R|-----------------------|------------------------------|

|-----------------------|------------------------------|

2|-----------------------|------------------------------|

|-----------------------|------------------------------|

WHENEVER YOU COME AROUND:(CHORUS) I ------------GET

WHENEVER YOU COME AROUND:(REAPEAT)

G#M7 F# B

G|---------------------------|-------2---------2--------|

T|---------------------------|-0-----4--2----4----------|

R|-4-------------------------|--------------------------|

|-6----4---------4----2-----|-1------------------------|

1|-6--------------4----------|-2----------6-------------|

|-4--------------2----------|--------------------------|

G|----------------2----------| -------------------------|

T|-4--------------2----------|--------------------------|

R|-4--------------4----3-----|--------------------------|

|-4--------------2----4-----|--------------------------|

2|----------------4----4-----|--------------------------|

|-4--------------2----2-----|--------------------------|

WEAK IN THE KNEES AND I LOOSE MY BREATH OH I

E B

|-0----------0---0---2---0----|---4---------------------|

|-0----------0---0---0-0-0--0-|-2~4---------------------|

|--------------1-----1--1--1--|---4-------------4-------|

|-------2---------------------|---------------4~6-4--4--|

|------------------2---------6|-------------------------|

|-----------------------------|--------------7----------|

TRY TO SPEAK BUT THE WORDS WONT COME OUT I'M SO

F#7sus F#7

|----------2---------------0---------------------2------|

|----------2--------------------------------------------|

|-4--------4-----------------3--------------------------|

|-2--------2----2---4--------2--------------4-----------|

|-4----4---------------------4--------------------------|

|-2--------------------------2--------------------------|

SCARED TO DEATH AND WHEN YOU SMILE THAT SMILE MY WORLDTURNS

B E

G|-2-------------------2---|---------0--------------------|

T|-2-----------------2---2-|---------0-------0------------|

R|-4-----------4---4-------|-1-------1-------1------------|

|-4----------4------------|-2-------2-------2------------|

1|-2--------------6--------|-2----------------------------|

|-------------------------|-0----------------------------|

G|-------------------------|---------------11-------------|

T|-------4-----------------|---------------12-------------|

R|-------4-----------------|---------------11-------------|

|-----4-------------------|---------------14-------------|

2|-4~6--------------6~9----|-9~11----------11-------------|

|-------------------------|------------------------------|

UP - SIDE DOWN

G#m7 F# E

G|-7----------------6---------|-------------0------------|

T|-4----------------4---------|--0--------------0--------|

R|-4----------------6---------|--1-----------------------|

|-6----------------4---------|--2-----------------------|

1|----------------------------|--2-----------------------|

|----------------------------|--0-----------------------|

G|----------------------------|--------------------------|

T|----------------------------|--------------------------|

R|----------------------------|---------3~4--------------|

|----------------------------|--2------4~6--------------|

2|-6----------------4---------|--2-----------------------|

|-4----------------2---------|--0-----------------------|

WHENEVER YOU COME AROUND

B F# F#7 B

|-2--------------------------|--------------------------|

|-2--------------------------|-0------------0-----------|

|-4--------------------------|--------------1-----------|

|-4---------------4--2-------|-1--------------4---------|

|-6---------------4----------|-2----------2-------------|

|-----------------2----------|--------------------------|

SOLO

B ^^^^^ E B

|--------------------|--------------|--------------------|

|-----7-7-7----------|-----4--------|-------------------4|

|-6~8-------6~8-----8|-4~6---6-4-4--|-6/6/6/~4-6~4-4-4~6-|

|--------------------|--------------|--------------------|

|--------------------|--------------|--------------------|

|--------------------|--------------|--------------------|

F#7sus F#7 B

|----------------------|------14-14-14---------------|

|-5~4------------------|--14/----------14/-----------|

|-----6--6--4-6~8--6--4|-----------------------------|

|----------------------|-----------------------------|

|----------------------|-----------------------------|

|----------------------|-----------------------------|

E G#m7 F

|--------------11------|-------

Get this song at:  amazon.com sheetmusicplus.com

Share your thoughts

0 Comments found