Vince Gill

Vince Gill - Whenever You Come Around solo guitar tab

WHENEVER YOU COME AROUND

Vince Gill

Solo

E------------------------------------------------------------------

B--------7---7---7---------------4---------------------------------

G---6h8-------------6h8------4h6---6--4--4-------b6--4h6--4--------

D------------------------------------------------------------------

A------------------------------------------------------------------

E------------------------------------------------------------------

E------------------------------------------------14-14-14----------

B----------4-5(hold)-5p4---------------------b14----------14-------

G---4--4h6---------------6---4--6/8--6-----------------------------

D------------------------------------------------------------------

A------------------------------------------------------------------

E------------------------------------------------------------------

E---------11-------------------------------------------------------

B---12h14-----14-12-12-----12-12-14-12-b14----12-14-12-------------

G------------------------------------------------------------------

D------------------------------------------------------------------

A------------------------------------------------------------------

E------------------------------------------------------------------

Christopher R.

Knoxville, TN

Get this song at:  amazon.com sheetmusicplus.com

Share your thoughts

0 Comments found