Vince Gill

Vince Gill - When Love Finds You solo guitar tab

WHEN LOVE FINDS YOU

Vince Gill

Solo

Transcribed By: Christopher R (Feb 25, 2003)

Capo I Fret

E------------------------------------------------------------------------------------------

B--b12r-10h12----b12-12p10---10------------------10--b12r--10h12----b12-10---10/7----------

G--------------------------------9-------9--9h11-----------------------------------9h11----

D---------------------------------------------------------------------------------------10-

A------------------------------------------------------------------------------------------

E------------------------------------------------------------------------------------------

E------------------------------------------------------------------------------------------

B-------b12--12p10--b12---b12r---b12-12p10---10/7------10--b12r--10h12--b12-10-------------

G-------------------------------------------------9/11--------------------------b12-12-12--

D------------------------------------------------------------------------------------------

A------------------------------------------------------------------------------------------

E------------------------------------------------------------------------------------------

Get this song at:  amazon.com sheetmusicplus.com

Share your thoughts

0 Comments found