Vince Gill

Vince Gill - What The Cowgirls Do lead guitar tab

Vince Gill - What The Cowgirls Do (with lead solo)

By axehappy - axehappy@

C = x32010 F = x33211

G = 320003

***********************************************************************

C

INTRO

C

Have you ever been down to Texas?

Down around San Antone?

They love to go all night, and treat ya right,

And party 'til the cows come home.

F G

I love it when they let their hair down,

F G

Dancing real close to you.

F

You know I'm a sucker baby,

G C

For what the cowgirls do, (what the cowgirls do)

What the cowgirls do, (what the cowgirls do)

C

It ain't no different up in Oklahoma,

They ain't afraid to stay up 'til dawn.

They love to cut a rug,

And chug-a-lug long necks until their money's all gone.

F G

I love it when they let their hair down,

F G

Dancing real close to you.

F

You know I'm a sucker baby,

G C

For what the cowgirls do, (what the cowgirls do)

What the cowgirls do, (what the cowgirls do)

Shoot that thing....

LEAD SOLO (same chords as one verse and chorus)

C

Then there's the cowgirls all across the country,

From Baton Rouge to Bangor Maine.

It ain't so hard to see, they'll be the death of me.

They're gonna drive my little heart insane.

F G

I love it when they let their hair down,

F G

Dancing real close to you.

F

You know I'm a sucker baby,

G C

For what the cowgirls do, (what the cowgirls do)

F G

Yeah, I love it when they let their hair down,

F G

Dancing real close to you.

F

You know I'm a sucker baby,

G C

For what the cowgirls do, (what the cowgirls do)

What the cowgirls do, (what the cowgirls do)

What the cowgirls do, (what the cowgirls do)

What the cowgirls do, (what the cowgirls do)

What those cowgirls do, (what the cowgirls do)

***********************************************************************

Lead Solo

b = bend, p = pulloff, \ = slide down,

pbr = prebend and release, / = slide up,

bh = bend and hold, ~ = vibrato, x = heavily muted note,

h = hammer on

***********************************************************************

E------8-----------------------------8---------------------

B-----8--11bh~~11~~11~~11~~11r-p8-11b-------------8--------

G--10b--------------------------------12-12\10-10b-8b------

D----------------------------------------------------10-8--

A----------------------------------------------------------

E----------------------------------------------------------

E--10b-10-8---8-------------------------------------8---------

B----------11b-11bh~~~11r-p8-11-10pbr-p8--10--8----8-11/13p11-

G-------------------------------10pbr-p8--10--8-10b-----------

D---------------------------------------10--10----------------

A-------------------------------------------------------------

E-------------------------------------------------------------

rake

E--13b-11--------------13-11b------------------------8------

B--------13-13p11------------13-x-13-11b----------11b-11p8--

G-------------------12b-----------------12-12----x----------

D-----------------------------------------------x-----------

A----------------------------------------------x------------

E-----------------------------------------------------------

E-----------------------------------------------------------------

B--10pbr-p8-10p8-8--8-10-x-8----------6---------------------------

G--10pbr-p8-10p8-10b--10-x-8b----------8b-p5-------0--------------

D----------------------------10\---5/7------5-8b-p5-5-5p4p3-5b-3--

A-----------------------------------------------------------------

E-----------------------------------------------------------------

E------------------------8-------------------------------------

B---------------------11b-11bh~~~----------10------------------

G--------------------------------10pbr-p8--10-8b---------------

D--3/10-13b-p10--10~~~-------------------10-----10-8-8h10~~~\--

A--------------12----------------------------------------------

E--------------------------------------------------------------

Get this song at:  amazon.com sheetmusicplus.com

Share your thoughts

0 Comments found