Vince Gill

Vince Gill - What The Cowgirls Do guitar tab

What The Cowgirls Do

by Vince Gill and Reed Nielson

Tunings

Gtr I (C F C F A D) - 'Gtr. 1'

Gtr II (E A D G B E) - 'Gtr. 2'

Gtr III (E A D G B E) - 'Gtr. 3'

Gtr IV (E A D G B E) - 'Gtr. 4'

Gtr V (E A D G B E) - 'Gtr. 5'

Intro

Q=158

N.C. C

4/4

Gtr III

W H Q E E +Q Q +Q E E

| | | | | |

/ / / / / /

Gtr I

E E E E S S E E E E E E E e E E E Q. E E E E E

-----------------------|--------------------|-----------------------|

-----------------------|----------------6---|-----------------------|

-----------------------|---7--x--x-7----5---|--7--------------------|

-------3---------------|---7-------7--------|--7--------------------|

---1-2---1-0---0-------|--------------------|-----------0---0-------|

-------------3---3b3.5-|-0------------------|-------------0---3b3.5-|

Gtr II

W Q E E Q. E Q Q H

-----------------------|-----11s12----------|-----------------------|

-----------------------|-----10s11--------8-|------8----------------|

-----------------------|------------------9-|------9----------------|

-----------------------|--------------------|-----------------------|

-----------------------|--------------------|-----------------------|

-----------------------|--------------------|-----------------------|

N.C. C N.C. C

H Q E E +Q Q H H Q E E

| | | |

/ / / /

E E E E e E Q Q E E E E E E E E E E e E Q

--------------------|------------------|-------------------|

----------------6---|------------------|---------------6---|

---7--x--x-7----5---|--7\--------------|---7--x--x-7---5---|

---7-------7--------|--7\--------------|---7-------7-------|

--------------------|------0-1-2-1-0---|-------------------|

-0------------------|----------------3-|-0-----------------|

Q E E Q. E +Q Q H Q E E H

-----11s12----------|------------------|-----11s12---------|

-----10s11--------8-|-(8)--------------|-----10s11---------|

------------------9-|-(9)--------------|-------------------|

--------------------|------------------|-------------------|

--------------------|------------------|-------------------|

--------------------|------------------|-------------------|

N.C. C

+Q Q +Q E E H Q E E +Q Q H

| | | | | | | |

/ / / / / / / /

Q. E E E E E E E E E e E E E Q E E E E E E

-----------------------|--------------------|------------------||

-----------------------|----------------6---|------------------||

--7--------------------|---7--x--x-7----5---|--7--7---7--------||

--7--------------------|---7-------7--------|--7--6---5-3-0----||

-----------0---0-------|--------------------|---------------5s=||

-------------3---3b3.5-|-0------------------|------------------||

W Q E E Q. E Q Q H

-----------------------|-----11s12----------|------------------||

-----------------------|-----10s11--------8-|-----8------------||

-----------------------|------------------9-|-----9------------||

-----------------------|--------------------|------------------||

-----------------------|--------------------|------------------||

-----------------------|--------------------|------------------||

1st Verse

C Bb C Bb C Bb

E E Q Q E E E E Q +E E Q E E Q E E E E E E Q +Q Q

| | | | | | | | | | | | | | | | | | | | | | |

/ / / / / / / / / / / / / / / / / / / / / / /

E E E E E E E E E E E E E E Q E E E E e E E E E E E E e E Q

-----------------|-----------------|-----------------|-----------------|

-----------------|-6---------------|-----------------|-----------------|

---7-x-x-x-x-5h7-|---7-x-x--x-x-5--|---7-x-x-7-x-5h7-|---7-x-x--7-x-5--|

---7-x-x-x-x-5h7-|---7----------5--|---7-x-x-7-x-5h7-|---7-x-x--7-x-5--|

-7---------------|-----------------|-----------------|-----------------|

-----------------|-----------------|-----------------|-----------------|

C Bb C Bb C BbC

E E Q Q E E Q Q Q E E E E Q E E E E E E E E E E E E

| | | | | | | | | | | | | | | | | | | | | | | | |

/ / / / / / / / / / / / / / / / / / / / / / / / /

E E E E E E E E E E E E E E Q E E E E e E E E E E E E E E Q

-----------------|-----------------|-----------------|-----------------||

-----------------|-----------------|-----------------|-----------------||

-x-7-x-x-7-x-5h7-|-x-7-x-x-7-x-5---|-x-7-x-x-7-x-5-x-|-7---7---7-------||

-x-7-x-x-7-x-5h7-|-x-7-x-x-7-x-5---|-x-7-x-x-7-x-5-x-|-7---6---5-3p0---||

-----------------|-----------------|-----------------|-----------------||

-----------------|-----------------|-----------------|-----------------||

1st Chorus

F G F G

Q Q +Q Q Q Q E E Q Q Q +Q Q Q Q E E Q

| | | | | | | | | | | | | | | | | |

/ / / / / / / / / / / / / / / / / /

H. E E E E E E E E E E H +Q. E E E E E E E E E

----------------|-----------------|----------------|-----------------|

----------------|-------------2p0-|----------------|-----------------|

-0--------------|---2-x-x-x---2p0-|-0-----(0)------|---2-x-x-x-x-----|

-0----------0-1s|=2-2-x-x-x-------|-0-----(0)------|---2-x-x-x-x-2p0-|

-0----------0-1s|=2---------------|-0-----(0)----1s|=2-----------2p0-|

----------------|-----------------|----------------|-----------------|

F G N.C. C

Q Q +E E E E E E Q H H Q Q

| | | | | | | |

/ / / / / / / /

H. E E E E Q H E E E E E E E E

-----------------|-------------|--------------------|

-----------------|-------------|--------------------|

-0---------------|-------------|---7--x--x-x--x-5h7-|

-0-----------0-1s|=2-----------|---7--x--x-x--x-5h7-|

-0-----------0-1s|=2-----------|--------------------|

-----------------|-------------|--------------------|

Gtr II

W W Q E E Q. E

-----------------|-------------|-----11s12----------|

-----------------|-------------|-----10s11--------8-|

-----------------|-------------|------------------9-|

-----------------|-------------|--------------------|

-----------------|-------------|--------------------|

-----------------|-------------|--------------------|

N.C. C

Q E E H H Q Q Q Q H

| | | | |

/ / / / /

Q E E E E E E E E E E e E E E E E E E E E E E

--------------------|--------------------|-----------------||

--------------------|----------------6---|-----------------||

-7--7-7-------------|---7--x--x-7----5---|-7---7-----------||

-7--7-7-------------|---7-------7--------|-7---5---3-2p0---||

--------0---0-------|--------------------|---------------5-||

----------3---3b3.5-|-0------------------|-----------------||

Q Q H Q E E Q. E Q Q H

--------------------|-----11s12----------|-----------------||

----8---------------|-----10s11--------8-|-----8-----------||

----9---------------|------------------9-|-----9-----------||

-

Get this song at:  amazon.com sheetmusicplus.com

Share your thoughts

0 Comments found