Vince Gill

Vince Gill - Tryin' To Get Over You intro guitar tab

TRYIN' TO GET OVER YOU

Vince Gill

Intro

(Dropped-D Tuning)

E------------5--0------2--3---3---2--0--------------

B-------------------3--------------------3--3-------

G--------2------------------------------------------

D------4--------------------------------------------

A---------------------------------------------------

D--0------------------------------------------------

E---------0-----------------------------------0-2-3-

B------------2---2---3-3-3-----------------3--------

G--------------------2-2-2---2--2--0----2-----------

D------2------------------------------4-------------

A---0-----------------------------------------------

D---------------------------------------------------

E--3---2---0------2------0--------------------------

B--------------------------------3--3----2----------

G--------------------------------2-----------2------

D-----------------------------4-------2---------5---

A---------------------------------------------------

D------------------------0--------------------------

Christopher R.

Knoxville, TN

(this is my work on this song........)

Get this song at:  amazon.com sheetmusicplus.com

Share your thoughts

0 Comments found