Vince Gill

Vince Gill - The Radio guitar tab

Vince Gill – The Radio (Solo)

Tabbed by: ruppy22

********************************

h = hammer

p = pull-off

********************************

Solo

E----------------------------------------------------------

B-----8-8---10-8-10-5--------6-5-3-------------------------

G—7/9-----9----------7---7-9-------5---3-5-----------------

D------------------------------------5---------------------

A----------------------------------------------------------

E----------------------------------------------------------

E----------------------------------------------------------

B------6-6-6-6-5-6-5---------6-5---5h6p5-3—3h5p3--------3-1

G--5-7---------------7---5-7---------------------5--4-5----

D----------------------------------------------------------

A----------------------------------------------------------

E----------------------------------------------------------

Get this song at:  amazon.com sheetmusicplus.com

Share your thoughts

0 Comments found