Vince Gill

Vince Gill - Santa Claus Is Coming To Town (part 2) guitar tab

Vince Gill - Santa Claus Is Coming To Town - PART 2 (tab)

By axehappy - axehappy@

This is the second part of my tab, starting from right after the fiddle/piano solos

at [1:52] and finishing at the end of the song.

Most of the guitar in part is doubled up by another guitar.

**************************************************************************************

/ = slide up p = pulloff

\ = slide down

**************************************************************************************

[1:52]

E---------------4/5-7-9-9-------------------------------------------------

B--8-6p5-6-8-8-------------4/5-6-8-7-8-7-8-9/10-8----------8-------6------

G------------------------------------------------10-10--8/9---9-6-7--4-5--

D-----------------------------------------------------------10------------

A-------------------------------------------------------------------------

E-------------------------------------------------------------------------

E-----------------4/5-7-9-9-------------------------------------------------

B--6/8-6p5-6-8-8-------------4/5-6-8-7-8-7-8-9/10-8----------8-------6------

G--------------------------------------------------10-10--8/9---9-6-7--4-5--

D-------------------------------------------------------------10------------

A---------------------------------------------------------------------------

E---------------------------------------------------------------------------

E--8\7-8-10-10-8-7-8-------8\7-8-10-10-8-7-8-----10p9-10-12-12-10-9-10------------

B-------------------10-10-------------------10\-----------------------12-12-10/12-

G---------------------------------------------------------------------------------

D---------------------------------------------------------------------------------

A---------------------------------------------------------------------------------

E---------------------------------------------------------------------------------

E--------------------------------------------------5-6-7-8\--------------------------

B--13-12-13-13/15-15-----12--------6/8-6-5-6-7-8\------------5-6-7-8-7-8-9/10-8------

G--------------------------14-12\----------------------------------------------10-10-

D-------------------12-12------------------------------------------------------------

A------------------------------------------------------------------------------------

E------------------------------------------------------------------------------------

E-------------------------------------------8-7-8----------8-7-8---------|

B-----8-------6-----8-------6-----8-------6---------8-6-5-8--------------|

G--8/9---9-6-7---8/9---9-6-7---8/9---9-6-7-------5-5------------3/5--\---|

D------10------------10------------10---------------------------3/5--\---|

A------------------------------------------------------------------------|

E------------------------------------------------------------------------|

Get this song at:  amazon.com sheetmusicplus.com

Share your thoughts

0 Comments found