Vince Gill

Vince Gill - Maybe Tonight guitar chord

Capo 2nd Fret

Intro

(A) (E)(A) (E)

E---2----------------2--2------------------2----

B---4----------------2--4------------------2----

G---4----------------3--4------------------3----

D---4-----234-23432--4--4------234--23432--4----

A---2-245------------4--2--245-------------4----

E--------------------2---------------------2----

(A) (E)

We've been friends for a long long time

(A) (E)

You had your lover and I had mine

(A) (E)

One night I looked at you, and I think we both knew

(G) (D)

Some night I'd hold you in my arms

(Chorus)

(C) (Am)

Maybe Tonight, We'll find each other

(C) (G)

Maybe Tonight, Turn around and I'll be there

(C) (Am)

Timing is right, We could finally get together

(C) (G) (C)

Might just fall in love, and it may be tonight

(A) (E)

Two hearts on fire can't live like this

(A) (E)

Burning desire we can't resist

(A) (E)

Who's going to break the ice, who's going to roll the dice

(G) (D)

All it would take is just one kiss

(Chorus)

Instrumental

(A) (E)(A) (E)

E---2----------------2--2------------------2----

B---4----------------2--4------------------2----

G---4----------------3--4------------------3----

D---4-----234-23432--4--4------234--23432--4----

A---2-245------------4--2--245-------------4----

E--------------------2---------------------2----

(A) (E)(G) (D)

E---2----------------2--5------------------4---

B---4----------------2--2------------------5---

G---4----------------3--2------------------4---

D---4-----234-23432--4--2------234--23432--2---

A---2-245------------4--4--245------------------

E--------------------2--5-----------------------

(Chorus) twice

(C) (G) (C)

Might just fall in love, and it may be tonight

Ending Instrumental

(A) (E)(A) (E)

E---2----------------2--2------------------2----

B---4----------------2--4------------------2----

G---4----------------3--4------------------3----

D---4-----234-23432--4--4------234--23432--4----

A---2-245------------4--2--245-------------4----

E--------------------2---------------------2----

(A) (E)(A) (E)

E---2----------------2--2------------------2----

B---4----------------2--4------------------2----

G---4----------------3--4------------------3----

D---4-----234-23432--4--4------234--23432--4----

A---2-245------------4--2--245-------------4----

E--------------------2---------------------2----

Get this song at:  amazon.com sheetmusicplus.com

Share your thoughts

0 Comments found