Vince Gill

Vince Gill - Liza Jane(complete ) solo guitar tab

vince gill-liza jane

***********************************************************************

b = bend br = bend & release

p = pulloff \ = slide down

h = hammer-on / = slide up

bh = bend & hold r = release bend

pbr = pre-bend & release pb = pre-bend

*************************************************************************

I have found that this solo is much easier if you divide it into sections. You will

also find that it is very very close to actuall if not let me know.

Good Luck!!!

1 1

E--------------------------------------------------------------------------------|

B------------------2-------------------------------------------------------------|

G---4b----------------4br-2----2p0----0------------------------------------------|

D---------------------------4-------4----4p2--------0----------------------------|

A--------------------------------------------5--3h4---3p2p0-----0------0-0-----0-|

E-----------------------------------------------------------3/5----3/5-----3/5---|

1 1 1

E-------------------------------------------------------------------------5------|

B-----------------------------------------2------5---------------------------5---|

G---------------------------2--------4b------7b------7br--5-----7-----7b--------7|

D-------0------5---------------4---2-------------------------7-------------------|

A---3/4----5/7---6\5---3h4-------------------------------------------------------|

E-5------------------------------------------------------------------------------|

1 1/2 1/2 1

E------5-----------------------------------------------------6-------------------|

B-8bh-----8rp5----------------------------------------8--------------------------|

G---------------7br-5-----5b------------5--------7b------7------7pbr-5-----5\2---|

D----------------------7------7--5\--------7--5-------------------------7--------|

A-----------------------------------3/7------------------------------------------|

E--------------------------------------------------------------------------------|

1 1 1

E--------------------------------------------------------------------------------|

B--5/7--7\5-----3\1----------------------------------------------5--------8------|

G--5/7--7\5-----4\2---0--------0----------------2------4b--7b-------10b----------|

D-------------------------3h4-----3p2p0-------------2----------------------------|

A-----------------------------------------3--4-----------------------------------|

E--------------------------------------------------------------------------------|

1 1 1 1

E--------------------------------------------------------------------------------|

B-------10--------12------14---------------14\12------14-------14-----------14\--|

G-12b--------14b------16b-----16br--14-----14\12------14-------14----12-----14\--|

D--------------------------------------16---------14-------14------------14------|

A--------------------------------------------------------------------------------|

E--------------------------------------------------------------------------------|

1/4

E--------------------------------------------------------------------------------|

B---8/11---11---11---11--11\----10-----------------------------------7-----------|

G---9/12---12---12---12--12\----10--------8b-------------------------7-----------|

D------------------------------------10--------10---8---10-\------------9--7-----|

A----------------------------------------------------------------3/9-------------|

E--------------------------------------------------------------------------------|

1

E-8/9/10----10---14\10-------12------15---15-15-15-15-15-15--------12----10------|

B-9/10/11---10---15\12----x--13------15bh-15-15-15-15-15-15r--12bh----12----12r--|

G--------------------------------------------------------------------------------|

D--------------------------------------------------------------------------------|

A--------------------------------------------------------------------------------|

E--------------------------------------------------------------------------------|

1 1 1 1

E--------------------------------------------------------------------------------|

B-10----10\8-----10pb---10pbr-8-------8p7-------5------------8b------------------|

G----11-------9-------------------9---------8-------7pbr-5-----------------------|

D--------------------------------------------------------------------------------|

A--------------------------------------------------------------------------------|

E--------------------------------------------------------------------------------|

Get this song at:  amazon.com sheetmusicplus.com

Share your thoughts

0 Comments found