Vince Gill

Vince Gill - Let's Make Sure We Kiss Goodbye intro guitar tab

LET'S MAKE SURE WE KISS GOODBYE

Vince Gill

(Gill)

Album: Let's Make Sure We Kiss Goodbye

Submitted by: Christopher R.

August 11, 2003

Intro

(Abmaj7) (Bb) (Cm7) (Eb/Bb)

E-------6-----------------------------------------------------

B-----4---------------b6^r6--b6^h4--4--4--------4-------------

G---3---------------------------------------3-----------------

D-------------------------------------------------------------

A-------------------------------------------------------------

E-------------------------------------------------------------

(Abmaj7) (Bbsus) (Bb7) (Eb)

E----3h6----6/8^h6--------------------------------------------

B-----------------------------b6^r6-------6-6p4--4-4----------

G--------------------------3----------------------------------

D-------------------------------------------------------------

A-------------------------------------------------------------

E-------------------------------------------------------------

Get this song at:  amazon.com sheetmusicplus.com

Share your thoughts

0 Comments found