Vince Gill

Vince Gill - Go Rest High On That Mountain lead guitar tab

Vince Gill - Go Rest High on that Mountain (Lead)

heels_fan_1@yahoo.com July 25 2002

Intro (Guitar Part)

E----------------------------------------------------------|

B------------12p10----10-----------------------------------|

G-9-7-7-7----------11------9b-9-9-9r-7---------------------|

D----------------------------------------------------------|

A----------------------------------------------------------|

E----------------------------------------------------------|

Solo

E---------------------------------------10-----------------|

B----------10------------7----------10b----12-----12p10----|

G----11-11----11---9p7-9---9-7--------------------------11-|

D-12-----------------------------12------------------------|

A----------------------------------------------------------|

E----------------------------------------------------------|

E-----------------------------------10---------------------|

B-10b~-12-10---------------12-10-12---12--12p10------------|

G--------------11---11--------------------------11-11------|

D-----------12----------12---------------------------------|

A----------------------------------------------------------|

E----------------------------------------------------------|

E----------------------------------------------------------|

B-10------------------12-12-10---10p8-7-7-10-7-------------|

G----11---------11-11--------------------------7-----------|

D-------12-------------------------------------------------|

A------------12--------------------------------------------|

E----------------------------------------------------------|

Get this song at:  amazon.com sheetmusicplus.com

Share your thoughts

0 Comments found