Vince Gill

Vince Gill - Go Rest High On That Mountain intro guitar tab

tabbed by Matellmon

|---0--2------------------------------------------|

|-3----3---0-------------3-----------3----3-------|

|---0--2-----0~4--2--2~4---0~4--2----2------------|

|-4----0--0----0-------------0---0-0-0------------|

|------0---------------------0----0---------------|

|--------------0---------------------2--2---------|

|-----------------------------0--2----------------|

|------3--------------------3----3---3--3-0----3--|

|-0~4----2--4--2--------------0--2-2-2-------0----|

|---0--5---------0~4-0`4----4----0---0----0-------|

|------------------5------5-----------------------|

|---3-------------------------------------3-------|

Get this song at:  amazon.com sheetmusicplus.com

Share your thoughts

0 Comments found