Vince Gill

Vince Gill - Don't Let Our Love Start Slippin' Away intro guitar tab

Vince Gill - Don't Let Our Love Start Slippin' Away (Dual Guitar Intro and Outro)

Words & Music By: Vince Gill and Pete Wasner

+--------+------------------------------------+

| Legend | |

+--------+ |

| |

| b = Bend |

| bh = Bend and Hold |

| br = Bend and Release |

| bhr = Bend, Hold and Release |

| brb = Bend, Release and Bend |

| brp = Bend, Release and Pull Off to (Note) |

| #^ = Pick note while bent up 1 step |

| / = Slide Up |

| |

+---------------------------------------------+

{Intro}

[Guitar 1]

e-----------------------------------------------------------------------

B-----------------------------------------------------------------------

G------13-14-14br-13----13-14---14bhr----13-14-14b-14b------------------

D---14---------------14---------------14--------------------------------

A-----------------------------------------------------------------------

E-----------------------------------------------------------------------

[Guitar 2]

e-----------------------------------------------------------------------

B-----------------------------------------------------------------------

G-----------------------------------------------------------------------

D------------2----4-----2--4----4--6--4--4--6---4-----------------------

A------------0----0--0--0--0----2--2--2--2--2---2---2-------------------

E---------------------------------------------------0-------------------

[Guitar 1]

e---------------12-----------------------12-----------------------------

B-----------------------------------------------------------------------

G------------------14br-13------------------13-14bhr----13-14--14bhr----

D----------------------------------------------------14-----------------

A-----------------------------------------------------------------------

E-----------------------------------------------------------------------

[Guitar 2]

e-----------------------------------------------------------------------

B-----------------------------------------------------------------------

G-----------------------------------------------------------------------

D-------------------------------------------4--2------------------------

A---2--4--2--2--4--2--2------2--4--2--2--4------------------------------

E---0--0--0--0--0--0--0------0--0--0--0--0------------------------------

[Guitar 1]

e------12---------------------12------------

B--------------------------12---------------

G---------14br-13----14b----------14br-13---

D---14--------------------------------------

A-------------------------------------------

E-------------------------------------------

{Outro}

e------0----------------------------------------------------------------

B------0-------12----------------------------10-12----------------------

G-----------------9-11brb--11----9-11-11brb--------11brp(9)--11b--------

D--4/6---6-2------------------11----------------------------------------

A-----------------------------------------------------------------------

E-----------------------------------------------------------------------

e------------9-----------------------9/12---12-------9-------9----9-----

B-------9-12----------------------12-----------12b-----12b-----12-------

G---9-9--------11brp(9)----9-11b----------------------------------------

D-----------------------------------------------------------------------

A-----------------------------------------------------------------------

E-----------------------------------------------------------------------

e-------------------------------12-14b---14bh-14^--14bh-14^-14^-14^-14^-14^-14^---

B---------------------------------------------------------------------------------

G---11brp(9)----9--11-9---11/13---------------------------------------------------

D------------11-------------------------------------------------------------------

A---------------------------------------------------------------------------------

E---------------------------------------------------------------------------------

Get this song at:  amazon.com sheetmusicplus.com

Share your thoughts

0 Comments found