Vince Gill

Vince Gill - Don't Come Cryin' To Me intro guitar tab

DON'T COME CRYIN' TO ME

Vince Gill

Intro:

(C) (F)

E------------------------------------------------------------

B---------------------------------------6--------------------

G---------------------5--7--7/9------9------9---5/7---5------

D---2--3---3/5-----5-------------------------------------7---

A------------------------------------------------------------

E------------------------------------------------------------

(C) (G) (C)

E---------------------------0--------------

B----/5---5-5---5----3----3----3---1-------

G---------------------------0--------------

D----/5---5-5---5----3----3----3---2-------

A------------------------------------------

E------------------------------------------

Get this song at:  amazon.com sheetmusicplus.com

Share your thoughts

0 Comments found