Verdena

Verdena - Zoe guitar tab

ZOE

Verdena

Album: Verdena, 1999

Tabbed by Denial Guitar (DenialGtr@hotmail.com)

Drop Db tuning (Db Ab Db Gb Bb eb)

Intro

|--------------------|---------------------|

|--------------------|-----3---------------|

|----5s7-7-7-4-4-4-5-|-5-5---5-------------|

|-0--5s7-7-7-4-4-4-5-|-5-------5-3-3-3s5-5-| (x3)

|-0--3s5-5-5-2-2-2-3-|-3---------3-3-3s5-5-|

|-0------------------|-3---------3-3-3s5-5-|

|--------------------|----------------------|

|--------------------|----------------------|

|----5s7-7-7-4-4-4-5-|--5-5--5-5------------|

|-0--5s7-7-7-4-4-4-5-|--5-5--5-5--3-3-3s5-5-|

|-0--3s5-5-5-2-2-2-3-|--3-3--3-3--3-3-3s5-5-|

|-0------------------|--3-3--3-3--3-3-3s5-5-|

Verse 1 (intro clean)

Io non dormo mai... e dormo in...

me, scuse solide

La mia immagine... non sono...

io, sento ridere

Chorus (intro w/dist)

Vorrei credere... che non ci...

sei, le mie lacrime

Forse tu ci sei... ma non ci...

sei, vorrei spegnermi

Verse 2 (intro clean)

Io non dormo mai... non so

scuse ruvide

La mia vanità .. non sono...

io, sento ridere

[Repeat chorus]

Bridge

...only bass for 4 measures then guitar plays:

|-------------------------|-------------------------|

|-------------------------|-------------------------|

|-------------------------|-------------------------|

|-6-6-6-6-0-6-6-6-6-0-6-0-|-6-6-6-6-0-6-6-6-6-0-6-0-| (x4)

|-6-6-6-6-0-6-6-6-6-0-6-0-|-6-6-6-6-0-6-6-6-6-0-6-0-|

|-6-6-6-6-0-6-6-6-6-0-6-0-|-6-6-6-6-0-6-6-6-6-0-6-0-|

uaaah sei!

|--------------------------|--------------------------|

|--------------------------|--------------------------|

|--------------------------|--------------------------|

|-6-6-6-6-0-6-6-6-6--------|-6-6-6-6-0-6-6-6-6--------|

|-6-6-6-6-0-6-6-6-6--------|-6-6-6-6-0-6-6-6-6--------|

|-6-6-6-6-0-6-6-6-6--0s12~-|-6-6-6-6-0-6-6-6-6--0s15~-|

|--------------------------|--------------------------|

|--------------------------|--------------------------|

|--------------------------|--------------------------|

|-6-6-6-6-0-6-6-6-6--------|-6-6-6-6-0-6-6-6-6--------|

|-6-6-6-6-0-6-6-6-6--------|-6-6-6-6-0-6-6-6-6--------|

|-6-6-6-6-0-6-6-6-6--0s10~-|-6-6-6-6-0-6-6-6-6--0s12s0|

[Repeat chorus]

Ending

|-------------------------|

|-------------------------|

|-------------------------|

|-6-6-6-6-0-6-6-6-6-0-6-0-| (x3)

|-6-6-6-6-0-6-6-6-6-0-6-0-|

|-6-6-6-6-0-6-6-6-6-0-6-0-|

te!

Get this song at:  amazon.com sheetmusicplus.com

Share your thoughts

0 Comments found