Verdena

Verdena - Viba guitar tab

Artist : Verdena

Album : Verdena

Song : VIBA

This is one of the most beautiful songs of the italian band

Questa è la tablatura di Viba come viene suonata nei concerti, cioè con

una sola chitarra. Nell'album 'Valvonauta' è presente una seconda

chitarra che fa degli accordi diversi nel riff finale, molto spesso

uguali a quelli del basso, per riempire il suono e renderlo più

armonioso. La chitarra è sempre distorta sebbene abbia un booster nel

bridge. Gli altri effetti usati sono un delay e un phaser.

[RIFF]

C(acc.basso) E D

|------------------------------------------------------------------------------

|------------------------------------------------------------------------------

|14-14--14-14-14-12--12-12--12-12-12-12-11-11--11-11-11-1211-11-11-1211-11-11

|------------------------------------------------------------------------------

|12-12--12-12-12-10--10-10--10-10-10-10-9--9---9--9--9--109--9--9--109--9--9-

|------------------------------------------------------------------------------

C E D

|------------------------------------------------------------------------------

|------------------------------------------------------------------------------

|14-14--14-14-14-12--12-12--16-16-16-16-11-11--11-11-11-1211-11-11-1211-11-11

|------------------------------------------------------------------------------

|12-12--12-12-12-10--10-10--14-14-14-14-9--9---9--9--9--109--9--9--109--9--9-

|------------------------------------------------------------------------------

[VERSO]

C E G

|0--0--0-0-0-0--0-0--0-0-0-0-0--0--0-0-0-0--0-0--0-0-0-0-

|0--0--0-0-0-0--0-0--0-0-0-0-0--0--0-0-0-0--0-0--0-0-0-0-

|4--4--4-4-4-4--4-4--4-4-4-4-4--4--4-4-4-4--4-4--4-4-4-4-

|2--2--2-2-2-2--2-2--2-2-2-2-2--2--2-2-2-0--0-0--0-0-0-0-

|3--3--3-3-3-3--3-3--3-3-3-3-2--2--2-2-2-2--2-2--2-2-2-2-

|----------------------------0--0--0-0-0-3--3-3--3-3-3-3-

sono sveglio o forse no, ma non m'importa

2nd. non mi spiego quasi mai io non ho fretta

tu sei l'unica per me

2nd. voglio bere un pò di me

sarò lento quanto vuoi tu non ti senti

2nd. forse sbaglio o forse no tu non ti senti

C A

|0--0--0-0-0-0--0-0--0-0-0-0-0----------------------------

|0--0--0-0-0-0--0-0--0-0-0-0-0------------0(only 2nd time)-

|4--4--4-4-4-4--4-4--4-4-4-4-4----------------------------

|2--2--2-2-2-2--2-2--2-2-2-2-2----------------------------

|3--3--3-3-3-3--3-3--3-3-3-3-0----------------------------

|---------------------------------------------------------

più____________ così fra____________gi_____________

[RIT]

G Em

|---------------------------0-0--3-3-3-3--3-3--3-3-3-3-

|---------------------------0-0--0-0-0-0--0-0--0-0-0-0-

|4-4--4-4-4-4--4-4--4-4-4-4-0-0--0-0-0-0--0-0--0-0-0-0-

|5-5--5-5-5-5--5-5--5-5-5-5-2-2--2-2-2-2--2-2--2-2-2-2-

|5-5--5-5-5-5--5-5--5-5-5-5-2-2--2-2-2-2--2-2--2-2-2-2-

|3-3--3-3-3-3--3-3--3-3-3-3-0-0--0-0-0-0--0-0--0-0-0-0-

_le io con te_______ solo

C D

|------------------------------------------------------

|5-5--5-5-5-5--5-5--5-5-5-5-7-7--7-7-7-7---------------

|5-5--5-5-5-5--5-5--5-5-5-5-7-7--7-7-7-7---------------

|5-5--5-5-5-5--5-5--5-5-5-5-7-7--7-7-7-7---------------

|3-3--3-3-3-3--3-3--3-3-3-3-5-5--5-5-5-5---------------

|---------------------------------------x/-x/-x/-x/ (

Get this song at:  amazon.com sheetmusicplus.com

Share your thoughts

0 Comments found