Verdena

Verdena - Valvonauta guitar tab

Artist: Verdena

Song: Valvonauta

Album: Verdena

Tabbed by kurt826

Tuning: Eb Ab Db Gb Bb eb

[riff]

A E EB

|------------------------------------------------------------------

|------------------------------------------------------------------

|------------------------------------------------------------------

|-6-6-6-7-7-9-9----6-6-6-7-7-9-9---6-6-6-6-6-6-6-6-6-6-6-6-6-6-6-6-

|-0-0-0-0-0-0-0-00-0-0-0-0-0-0-0-00--------------------------------

|----------------------------------0-0-0-0-0-0-0-0-0-0-0-0-0-7-7-7-

A E

|---------------------------------------------------------------------

|---------------------------------------------------------------------

|---------------------------------------------------------------------

|-6-6-6-7-7-9-9----6-6-6/11-11-11-11--6-6-6-6-6-6-6-6-6-6-6-6-6-6-----

|-0-0-0-0-0-0-0-00-0-0-0-0--0--0--0-00--------------------------------

|-------------------------------------0-0-0-0-0-0-0-0-0-0-0-0-0-0-/12

end riff

verse

A B C# E

|---------------------------------------------------------------------

|---------------------------------------------------------------------

|---------------------------------------------------------------------

|-6-6-6-7-7-9-9----6-6-6-7-7-9-9----6-6-6-7-7-9-9----6-6-6-7-7-9-9----

|-0-0-0-0-0-0-0-00-0-0-0-0-0-0-0-00-0-0-0-0-0-0-0-00-0-0-0-0-0-0-0-00-

|---------------------------------------------------------------------

1.mi affogherei e anche se no mi

2.io senza lei riesca appena a

3.mi affogherei e anche se non con

A B C# E

1&3.viene io senza lei e anche se non c'è

2.sentire che non ci sei e riesco appena a

A B C# E

1&3.miele mi viene dolce e penso sempre lo

2.stupirmi va tutto bene e penso sempre lo

A B E E

|---------------------------------------------------------------

|---------------------------------------------------------------

|---------------------------------------------------------------

|-6-6-6-7-7-9-9----6-6-6-7-7-9-9----6-6-6-6-6-6-6-6-6-6-6-------

|-0-0-0-0-0-0-0-00-0-0-0-0-0-0-0-00-----------------------------

|-----------------------------------0-0-0-0-0-0-0-0-0-0-0-/12~~-

1&2.stesso mi affogherei ei!

3.stesso mi affogherei ei!

end verse

ending with 4 slides on “E”

verse 2

chorus

C# A C# A

|---------------------------------------------------------------

|---------------------------------------------------------------

|-8/9-8/9-8/9-8--6-6-6-6-6-6-6-6-8/9-8/9-8/9-8--6-6-6-6-6-6-6-6-

|----------------7-7-7-7-7-7-7-7----------------7-7-7-7-7-7-7-7-

|-6/7-6/7-6/7-6--7-7-7-7-7-7-7-7-6/7-6/7-6/7-6--7-7-7-7-7-7-7-7-

|----------------5-5-5-5-5-5-5-5----------------5-5-5-5-5-5-5-5-

sto bene se non torni mai sto bene

C# A C# A

|---------------------------------------------------------------

|---------------------------------------------------------------

|-8/9-8/9-8/9-8--6-6-6-6-6-6-6-6-8/9-8/9-8/9-8--6-6-6-6-6-6-6-6-

|----------------7-7-7-7-7-7-7-7----------------7-7-7-7-7-7-7-7-

|-6/7-6/7-6/7-6--7-7-7-7-7-7-7-7-6/7-6/7-6/7-6--7-7-7-7-7-7-7-7-

|----------------5-5-5-5-5-5-5-5----------------5-5-5-5-5-5-5-5-

se non torni mai sto bene se non torni mai

E

|-------------------------------------------

|-------------------------------------------

|-13--13-13-1311--11/13--13-14-14-16-16-16-

|-------------------------------------------

|-11--11-11-119---9-/11--11-12-12-14-14-14-

|-0---0--0--0--0---0--0---0--0--0--0--0--0--

mai

end chorus

then:

ending with 4 slides on “E”

only guitar

solo

A E

|-----------------------------------------------------------------------

|-----------------------------------------------------------------------

|-------------------9-9-11-11-9-9-8-8-9---------------------------------

|-11-11-11-11-11-11---------------------6-6-6-6-6-6-6-6-6-6-6-6-6-6-6-6- 3v.

|-0--0--0--0--0--0--0-0-0--0--0-0-0-0-0---------------------------------

|---------------------------------------0-0-0-0-0-0-0-0-0-0-0-0-0-7-7-7-

A E

|--------------------------------------------------------------------

|--------------------------------------------------------------------

|-------------------9-9-11-11-9-9-8-8-9------------------------------

|-11-11-11-11-11-11---------------------6---6---------6---6----------

|-0--0--0--0--0--0--0-0-0--0--0-0-0-0-0------------------------------

|---------------------------------------0---0-0-0-/14

Get this song at:  amazon.com sheetmusicplus.com

Share your thoughts

0 Comments found