Verdena

Verdena - Valvonauta bass tab

Verdena

VALVONAUTA

Entra con la batteria e vale fino alla prima strofa:

Gb|--------------------------------------------------------------------------------------

Db|--------------------------------------------------------------------------------------

Ab|-0-0-0-0-0-0-0-0-0-0-0-0----------------------------0-0-0-0-0-0-0-0-0-0---------------            

Eb|------------------------0-0-0-0-0-0-0-0-0-0-0-0-0-0---------------------0-0-0-0-0-0-0/  

Strofa:

Gb|----------------------------------------------------

Db|----------------------------------------------------

Ab|----------------------------------------------------

Eb|5-5-5-5-5-5-/7-7-7-7-7-7/9-9-9-9-9-9-/12-12-12-12-//    

Prima del ritornello:

Gb|---------------------

Db|---------------------

Ab|---------------------

Eb|9-9-9-9-0-0-0-0-0-0-/

Fra una strofa e l?altra nell?assolo e alla fine della canzone:

Gb|------------------------------------------------------------------------------------

Db|------------------------------------------------------------------------------------

Ab|0-0-0-0-0-0-0-0-0-0-0-0-0-0-0-0-------------/7-7-7-7-------------/9-9-9-9-----------    

Eb|-------------------------------------------------------0-0-0-0--------------0-0-0-0-                  

Ritornello                                 ultima volta

Gb|---------------------------------------|-------------------------

Db|---------------------------------------|-------------------------

Ab|4-4-4-4-4-4-4--------------------------|7-7-7---------9-9-9------

EB|----------------------5-5-5-5-5-5-5-5--|------0-0-0-0-------0-0-0

(ultime due battute)

Gb|---------------------------------------------------------------

Db|---------------------------------------------------------------

Ab|-0-0-0-0-0-0-0-2-2-2-2-2-2-2--------/7/--------/6/--------/7/--

Eb|------------------------------0-0-0-----0-0-0------0-0-0------0  

/= slide

^= bend

x= armonica (queste note sfiorando solo le corde)

per suggerimenti o rimproveri scrivi a: gallottaluigi@tin.it

Get this song at:  amazon.com sheetmusicplus.com

Share your thoughts

0 Comments found