Verdena

Verdena - Ultranoia guitar tab

ULTRANOIA

Verdena

Album: Verdena, 1999

Tabbed by Denial Guitar (DenialGtr@hotmail.com)

Tune 1/2 step down (Eb Ab Db Gb Bb Eb)

Intro (all x2)

|---------|---------|---------|---------|----------|----------|----------|---------|

|---------|---------|---------|---------|----------|----------|----------|---------|

|---------|---------|---------|---------|----------|----------|----------|---------|

|----(x8)-|----(x8)-|----(x8)-|-9--(x8)-|-11--(x8)-|-11--(x8)-|-11--(x8)-|-9--(x8)-|

|-12------|-9-------|-11------|-x-------|-0--------|--9-------|--9-------|-7-------|

|--9------|-9-------|--0------|-0-------|----------|----------|-10-------|-7-------|

Verse 1 (all x2)

|---------|---------|---------|---------|----------|----------|----------|---------|

|---------|---------|---------|---------|----------|----------|----------|---------|

|---------|---------|---------|---------|----------|----------|----------|---------|

|----(x8)-|----(x8)-|----(x8)-|-9--(x8)-|-11--(x8)-|-11--(x8)-|-11--(x8)-|-9--(x8)-|

|-12------|-11------|-11------|-x-------|-0--------|--9-------|--9-------|-7-------|

|--9------|--9------|--0------|-0-------|----------|----------|-10-------|-7-------|

No non ci sei è strano sai sentirti come me

Qui sfrega... mi è qui che stai soffiando su di me

Chorus

|-----------------|-----------------|-----------------|-----------------|

|-----------------|-----------------|-----------------|-----------------|

|-7-7-7-7-7-7-7-7-|-7-7-7-7-9-9-9-9-|-----------------|-----------------|

|-7-7-7-7-7-7-7-7-|-7-7-7-7-9-9-9-9-|-4-4-4-4-4-4-4-4-|-4-4-4-4-2-2-2-2-| (x3)

|-5-5-5-5-5-5-5-5-|-5-5-5-5-7-7-7-7-|-4-4-4-4-4-4-4-4-|-4-4-4-4-2-2-2-2-|

|-5-5-5-5-5-5-5-5-|-5-5-5-5-7-7-7-7-|-2-2-2-2-2-2-2-2-|-2-2-2-2-0-0-0-0-|

Se in vena scorre

lei piano corre da me

tu tu mi spegni

|-----------------|-----------------|

|-----------------|-----------------|

|-7-7-7-7-7-7-7-7-|-7-7-7-7-9-9-9-9-|

|-7-7-7-7-7-7-7-7-|-7-7-7-7-9-9-9-9-|

|-5-5-5-5-5-5-5-5-|-5-5-5-5-7-7-7-7-|

|-5-5-5-5-5-5-5-5-|-5-5-5-5-7-7-7-7-|

se sei tu

Verse 2 (the same as 1)

Che mi vuoi fuori di me, è giusto sai sentirti su di me

Tu, seno blu, mi vuoi per te, mi sento così giù

[Repeat chorus]

Verse 3 (the same as 1 w/dist)

Che mi vuoi fuori di me

è giusto, sai, sentirti su di me

Qui sfregami

è qui che stai soffiando su di me

[Repeat chorus w/flanger]

(only drums) ...sei tu...sei tu...sei tu...sei tu

Solo

|---------|---------|---------|-----------------------|

|---------|---------|---------|-----------------------|

|14-------|14-------|13-------|13-13-13-13-11-11-11-11|

|----(x8)-|----(x8)-|----(x8)-|-----------------------| (x2)

|12-------|12-------|11-------|11-11-11-11-9--9--9--9-|

|---------|---------|---------|-----------------------|

|---------|-----------------------|-----------------------|-----------------------|

|---------|-----------------------|-----------------------|-----------------------|

|18-------|18-18-18-18-19-19-19-19|18-18-18-18-16-16-16-16|14-14-14-14-13-13-13-13|

|----(x8)-|-----------------------|-----------------------|-----------------------|

|16-------|16-16-16-16-17-17-17-17|16-16-16-16-14-14-14-14|12-12-12-12-11-11-11-11|

|---------|-----------------------|-----------------------|-----------------------|

|---------|---------|---------|---------|

|---------|---------|---------|---------|

|14-------|-9-------|11-------|11-------|

|----(x8)-|----(x8)-|----(x8)-|----(x8)-|

|12-------|-7-------|-9-------|-9-------|

|---------|---------|---------|---------|

Coda

|---------|---------|---------|-----------------------|

|---------|---------|---------|-----------------------|

|14-------|14-------|13-------|13-13-13-13-11-11-11-11|

|----(x8)-|----(x8)-|----(x8)-|-----------------------| (x3)

|12-------|12-------|11-------|11-11-11-11-9--9--9--9-|

|---------|---------|---------|-----------------------|

Se in vena scorre

Lei piano corre da me

Tu tu mi spegni

|-----------------------|-----------------------|

|-----------------------|-----------------------|

|14-14-14-14-14-14-14-14|14-14-14-14-14-14------|

|-----------------------|-----------------------|

|12-12-12-12-12-12-12-12|12-12-12-12-12-12------|

|-----------------------|------------------12s2-|

Se in vena...

|---------------|--------0-0-0-0|---------------|--------0-0-0-0|-------------------|

|---------------|--------0-0-0-0|---------------|--------0-0-0-0|-------------------|

|---------------|1-1-1-1-1-1-1-1|---------------|1-1-1-1-1-1-1-1|-------------------|

|4-4-4-4-4-4-4-4|2-2-2-2-2-2-2-2|4-4-4-4-4-4-4-4|2-2-2-2-2-2-2-2|4-4-4-4-4-4--------|

|4-4-4-4-4-4-4-4|2-2-2-2-2-2-2-2|4-4-4-4-4-4-4-4|2-2-2-2-2-2-2-2|4-4-4-4-4-4--------|

|2-2-2-2-2-2-2-2|0-0-0-0-0-0-0-0|2-2-2-2-2-2-2-2|0-0-0-0-0-0-0-0|2-2-2-2-2-2-s17bs0-|

scorre sei tu sei tu

...sei tu...sei tu...sei tu...sei tu

Get this song at:  amazon.com sheetmusicplus.com

Share your thoughts

0 Comments found