Verdena

Verdena - Ultranoia bass tab

Verdena

ULTRANOIA

Drop D-tuning

Strofa

G|-----------------------------------------------------------------------

D|-----------------------------------------------------------------------

A|4-4-4-4-4-4----------------0-0-0-0-0-0-0---------------5-5-5-5-7-7-7-7-  

E|--------------2-2-2-2-2-2------------------4-4-4-4-4-4-----------------

Ritornello

G|-----------------------------

D|-----------------------------

A|-----------------------------

D|0-0-0-0-2-2-2-2-4-4-4-4-4-/9-  

Alterno al rit. normale

G|-------------------------------------

D|-------------------------------------

A|5-5-5-5-5-5-7-7-7--------------------

D|--------------------4-4-4-4-4-4-/9-9-    

Fine

G|-----------------------------------------------------------------------

D|-----------------------------------------------------------------------

A|-----------------------------------------------------------------------

D|4-4-4-4-4-4-4-2-2-2-2-2-2-4-4-4-4-4-4-4-4-2-2-2-2-2-4-4-4-4-2-2-2-2-2-4  

/= slide

^= bend

x= armonica (queste note sfiorando solo le corde)

per suggerimenti o rimproveri scrivi a: gallottaluigi@tin.it

Get this song at:  amazon.com sheetmusicplus.com

Share your thoughts

0 Comments found