Verdena

Verdena - Stenuo guitar tab

Trascrizione : Matteo Zaggia (webmaster at tabs-database.com.com)

L'intro è eseguito con una chitarra acustica. Il resto della canzone è invece suonato

con due chitarre elettriche (che ho diviso in GtDx e GtSx, nel modo in cui escono

stereofonicamente dalle casse). Alla fine si affianca un piano rhodes

(suonato nell'ep 'viba' da Roberta) e una delle chitarre è suonata con il bottleneck ed

effettata con un delay.

[intro]

|---------------------------------|

|---------------------------------|

|---------------------------------|

|-9-9-9-9-9-9-9-9-----------------| 4 volte

|-7-7-7-7-7-7-7-7-----------------|

|-0-0-0-0-0-0-0-0-8-0-8-0-8-0-8-0-|

[riff]

GtDx & GtSx

|------------------------------------------------------------------------|

|------------------------------------------------------------------------|

|------------------------------------------------------------------------|

|-------------------------------------------------------------7h9-9~~~~~-|

|-7---7---7---7-------------------7---7---7h9-7-7h9-7--------------------|

|---0---0---0---0-8-0-8-0-8-0-8-0---0---0-------------8-0-8-0------------|

| GtDx

| |-----------------------------------------------------------------------|

| |-----------------------------------------------------------------------|

| |-----------------------------------------------------------------------|

| |-------------------------------------------------------------7h9-9~~~~-|

| |-7---7---7---7/9/10-------------------7---7---7---7--------------------|

| |---0---0---0--------8-0-8-0-8-0-8-0-----0---0---0---0-8-0-8-0----------|

|

| GtSx

| |-----------------------------------------------------------------------|

| |-----------------------------------------------------------------------|

| |-----------------------------------------------------------------------|

| |-------------------------------------------------------------7h9-9~~~~-|

| |-7---7---7---7------------------7h9-7-7---7---7---7--------------------|

| |---0---0---0---0----8-0-8-0-8-0---------0---0---0---0-8-0-8-0----------|

|

[verso]

GtDx & GtSx

Em C

|---------------------------------|

|---------------------------------|

|---------------------------------|

|---------------------------------|

|-7---7---7---7-------------------|

|---0---0---0---0-8-0-8-0-8-0-8-0-|

1.io non so se vorrei ti odio

2.io sto giù e tu no mi senti

Em C

1.ancora più che mai. sono

2.bene ancora,io non so. ora

Em C

1.su_______ mtv_____ sento il

2.che ci____ sei___ tu mi sento

Em C

1.freno che poi non sei tu______

2.uguale è ora di andarsene giù___

[rit]

| GtDx

| |---------------------------------------------|

| |---------------------------------------------|

| |-----7-----------9---------7-----------9-----|

| |---------------------------------------------|

| |-5-5---5-5-5/7-7---7-7-5-5---5-5-5/7-7---7-7-|

| |---------------------------------------------|

|

| GtSx

| |-------0--------------------0-----------------|

| |-------0--------------------0-----------------|

| |-11-11-11-11-11-11-11-11-11-11-11-11-11-12-12-|

| |----------------------------------------------|

| |-9--9--9--9--9--9--9--9--9--9--9--9--9--9--9--|

| |----------------------------------------------|

| se stenui in più non sei più

| GtDx

| |-------------------------------------------|

| |-------------------------------------------|

| |---5---4---------------5---4-------x-x-x-x-|

| |-----------------------------------x-x-x-x-|

| |-3---2---5h7-7-7-7-7-3---2---5h7-7-x-x-x-x-|

| |-------------------------------------------|

|

| GtSx

| |-------------------------------------------|

| |-17-17-17-17-17-17-17-17-17-17-17-17-17-17-|

| |-16-16-16-16-16-16-16-16-16-16-16-16-16-16-|

| |-------------------------------------------|

| |-14-14-14-14-14-14-14-14-14-14-14-14-14-14-|

| |-------------------------------------------|

| anoide_______ mestile___________

[riff]

| GtDx

| |---------------------------------------------------------------------------|

| |---------------------------------------------------------------------------|

| |---------------------------------------------------------------------------|

| |-------------------------------------------------------------------7h9-9~~-|

| |-7---7---7---7---------------7h9-7-7h9-7-7---7---7h9-9/10-10---------------|

| |---0---0---0---0-----8-0-8-0---------------0---0------------8-0-8-0--------|

|

| GtSx

| |----------------------------------------------------------------------------|

| |----------------------------------------------------------------------------|

| |----------------------------------------------------------------------------|

| |---------------------------------7h9-9~~------------------------------------|

| |-7---7---7h9-7-7h9-7---------------------7---7---7---7----------------------|

| |---0---0-------------8-0-8-0-8-0-----------0---0---0---0----8-0-8-0-8-0-8-0-|

|

#verso

#rit

[solo]

Chitarra pulita (un'altra distorta continua con il riff variandolo)

|---------------------------------------------|

|-------0-------0-------------0-------0-------|

|----12------12------12----11------11------11-| 3 volte simile

|-14------14------14----14------14------14----|

|---------------------------------------------|

|---------------------------------------------|

|---------------------------------------------|

|-------0-------0-------------0-------0-------|

|----12------12------12-14-14------14---14----|

|-14------14------14------------14---------14-|

|---------------------------------------------|

|---------------------------------------------|

|-------------------------------------------|

|-0--0--0--0--0--0--0--0--0--0--0--0--0--0--|

|-16-16-16-16-16-16-16-16-16-16-16-16-16-16-|

|-14-14-14-14-14-14-14-14-14-14-14-14-14-14-|

|-------------------------------------------|

|-------------------------------------------|

w\\distortion

|-----------------------------------------------------------|

|-----------------------------------------------------------|

|-------12--------12--------11--------12--------11-------12-|

|-12h14-----12h14-----12h14-----12h14-----12h14----12h14----|

|-----------------------------------------------------------|

|-----------------------------------------------------------|

|-----------------------------------------------------------|

|-----------------------------------------------------------|

|-------12--------11--------12--------11--------12-------11-| 3 volte

|-12h14-----12h14-----12h14-----12h14-----12h14----12h14----|

|-----------------------------------------------------------|

|-----------------------------------------------------------|

#rit

come prima 2 volte

[finale]

Una chitarra suona il riff principale variandolo.

Una seconda chitarra esegue l'assolo in E pentatonica minore e infine,

quando entra anche il piano Rhodes, suona con un bottleneck e viene effettata con

un delay (Alberto usa il Memory Man della Electro-Harmonix).

I volumi dell'echo vengono manipolati da Enrico R., cantante e

chitarrista degli Hogwash, proprio durante la registrazione.Added by tabs-database.com and our distinguished partners

Get this song at:  amazon.com sheetmusicplus.com

Share your thoughts

0 Comments found