Verdena

Verdena - Starless guitar tab

STARLESS

Verdena

Album: Solo un grande sasso, 2001

Tabbed by Denial Guitar (webmaster at tabs-database.com.com)

Tune 1/2 step down (Eb Ab Db Gb Bb eb)

Timing: 5/4

Verse 1

|------------------|-------------------|

|------------------|-------------------|

|------------------|-------------------|

|-----10P9---------|-----10P9----------| (x2)

|-7--------7-------|-7--------7--------|

|---0--------0-5s7-|---0--------0-8s10-|

Sei la mia gioia sensibile

e questo è come ti rivorrei...

|------------------|---------0------|----------0-----------|

|------------------|---------0------|----------0-----------|

|------------------|-0-0-0-0-0--0-0-|-0--0--0--0---0--0--0-|

|-----10P9---------|-7-7-7-7-7--7-7-|-9--9--9--9---9--9--9-|

|-7--------7-------|-8-8-8-8-8--8-8-|10-10-10-10--10-10-10-|

|---0--------0-5s7-|-8-8-8-8-8--8-8-|10-10-10-10--10-10-10-|

x________________4/4________________x

ma è tutto così normale il male che vorrei... per te!

Verse 2

|------------------|-------------------|

|------------------|-------------------|

|------------------|-------------------|

|-----10P9---------|-----10P9----------| (x2)

|-7--------7-------|-7--------7--------|

|---0--------0-5s7-|---0--------0-8s10-|

|------------------|-------------------|

|------------------|-------------------|

|------------------|-------------------|

|-----10P9---------|-----10P9----------| (x2)

|-7--------7-------|-7--------7--------|

|---0--------0-5s7-|---0--------0-8s10-|

E ancora spero come non mai

di renderti ogni perchè

|------------------|---------0------|----------0-----------|

|------------------|---------0------|----------0-----------|

|------------------|-0-0-0-0-0--0-0-|-0--0--0--0---0--0--0-|

|-----10P9---------|-7-7-7-7-7--7-7-|-9--9--9--9---9--9--9-|

|-7--------7-------|-8-8-8-8-8--8-8-|10-10-10-10--10-10-10-|

|---0--------0-5s7-|-8-8-8-8-8--8-8-|10-10-10-10--10-10-10-|

x________________4/4________________x

ma è ancora così normale il male che vorrei... per te!

Verse 3

|------------------|-------------------|

|------------------|-------------------|

|------------------|-------------------|

|-----10P9---------|-----10P9----------|

|-7--------7-------|-7--------7--------|

|---0--------0-5s7-|---0--------0-8s10-|

|------------------|-------------------|

|------------------|-------------------|

|------------------|-------------------|

|-----10P9---------|-----10P9----------| (x2)

|-7--------7-------|-7--------7--------|

|---0--------0-5s7-|---0--------0-8s10-|

Io sarò così falso

Io sarò così solo per te

|------------------|---------|---------|---------|---------|---------|---------|---------|---------|

|------------------|---------|---------|---------|---------|---------|---------|---------|---------|

|------------------|-12------|-14------|-17------|-17------|-19------|-21------|-22------|-22------|

|-----10P9---------|----(x8)-|----(x8)-|----(x8)-|----(x8)-|----(x8)-|----(x8)-|----(x8)-|----(x8)-|

|-7--------7-------|-10------|-12------|-15------|-15------|-17------|-19------|-20------|-20------|

|---0--------0-5s7-|---------|---------|---------|---------|---------|---------|---------|---------|

x____________________________________4/4____________________________________x

è giusto che sia morale il male che vorrei per te! per te! per te!

Bridge 1

|-------------------|------------------|-------------------|----------------------|

|-------------------|------------------|-------------------|----------------------|

|-------------------|------------------|-------------------|----------------------|

|-------------------|--------------7s9-|-------------------|--------------9s12----|

|-7---10P9-9---10s12|-7---10P9-9-------|-7---10P9-9---10s12|-7---10P9-9--------12~|

|---0--------0------|---0--------0-----|---0--------0------|---0--------0---------|

|-------------------|------------------|-------------------|-------------------|

|-------------------|------------------|-------------------|-------------------|

|-------------------|------------------|-------------------|-------------------|

|-------------------|--------------7s9-|-------------------|--------------7s9~-|

|-7---10P9-9---10s12|-7---10P9-9-------|-7---10P9-9---10s12|-7---10P9-9--------|

|---0--------0------|---0--------0-----|---0--------0------|---0--------0------|

Verse 4 (the same as 1)

Io sarò così falso

Io sarò così solo per te

è giusto che sia normale il male che vorrei per te!

Bridge 2: main riff x4 clean, x9 w/dist, x4 clean then...

|--------|--------|--------|--------|--------|--------|--------|--------|

|----0---|--------|----0---|--------|----0---|--------|----0---|--------|

|--0-----|--------|--0---0-|--------|--0---0-|--------|--0-----|--------|

|2-----2-|--------|4-------|--------|5-------|--------|2-----2-|--------| (x2)

|--------|--------|--------|--------|--------|--------|--------|--------|

|--------|--------|--------|--------|--------|--------|--------|--------|

|--------|-0------|--------|-0------|--------|--------|--------|-0------|

|----0---|-0------|----0---|-0------|----0---|--------|----0---|-0------|

|--0-----|-0------|--0---0-|-0------|--0---0-|--------|--0-----|-0------|

|2-----2-|-2------|4-------|-4h5----|9-------|-10-----|2-----2-|-4h5----| (x2)

|--------|--------|--------|--------|--------|--------|--------|--------|

|--------|--------|--------|--------|--------|--------|--------|--------|

|---------------|---------------|---------------|--------------|

|-------5-5-----|-------5-5-----|-------7-7-----|------7-7-----|

|---0---0-0---0-|---0---0-0---0-|---0---0-0---0-|--0---0-0---0-|

|-2---2-----2---|-2---2-----2---|-4---4-----4---|4---4-----4---|

|---------------|---------------|---------------|--------------|

|---------------|---------------|---------------|--------------|

|---------------|-----------------|------------------|-----------------|

|-------8-8-----|-------12-12-----|--------13-13-----|-------12-12-----|

|---0---0-0---0-|---0----0--0---0-|---0-----0--0----0|---0----0--0---0-|

|-5---5-----5---|-9---9-------9---|10---10-------10--|-9---9-------9---|

|---------------|-----------------|------------------|-----------------|

|---------------|-----------------|------------------|-----------------|

play these last two rows x2

|----------|----------|----------|----------|----------|----------|

|13--------|13--------|15--------|15--------|17--------|17--------|

|----(x10)-|----(x10)-|----(x10)-|----(x10)-|----(x10)-|----(x10)-|

|10--------|10--------|12--------|12--------|14--------|14--------|

|----------|----------|----------|----------|----------|----------|

|----------|----------|----------|----------|----------|----------|

|----------|-----------------------------|

|19--------|19-19-19-19-20-20-21-21-22-22|

|----(x10)-|-----------------------------|

|16--------|16-16-16-16-17-17-18-18-19-19|

|----------|-----------------------------|

|----------|-----------------------------|

Coda (4/4 from here to the end)

|--------|------------------|--------|-----------------|--------|-----------------|

|--------|------------------|--------|-----------------|--------|-----------------|

|14------|16-------17-17-16-|14------|19-------17------|16------|21-------16------|

|---(x8)-|---(x5)-----------|---(x8)-|---(x4)-----(x4)-|---(x8)-|---(x4)-----(x4)-|

|12------|14-------15-15-14-|12------|17-------15------|14------|19-------14------|

|--------|------------------|--------|-----------------|--------|-----------------|

|--------|--------|--------|-----------------|--------|-----------------|--------|--------|

|--------|--------|--------|-----------------|--------|-----------------|--------|--------|

|17------|17------|14------|19-------17------|16------|21-------16------|19------|16------|

|---(x8)-|---(x8)-|---(x8)-|---(x4)-----(x4)-|---(x8)-|---(x4)-----(x4)-|---(x8)-|---(x8)-| (x2)

|15------|15------|12------|17-------15------|14------|19-------14------|17------|14------|

|--------|--------|--------|-----------------|--------|-----------------|--------|--------|

Sun... chi... ld...

|--------|--------|--------|-----------------|--------|-----------------|--------|--------|

|--------|--------|--------|-----------------|--------|-----------------|--------|--------|

|17------|16------|14------|19-------17------|16------|21-------16------|19------|21------|

|---(x8)-|---(x8)-|---(x8)-|---(x4)-----(x4)-|---(x8)-|---(x4)-----(x4)-|---(x8)-|---(x8)-|

|15------|15------|12------|17-------15------|14------|19-------14------|17------|19------|

|--------|--------|--------|-----------------|--------|-----------------|--------|--------|

Sun... chi... ld...

|--------0------|--------0---0--|

|--------0------|--------0---0--|

|5-5-5-5-5-5-5-5|5-5-5-5-5-5-5-5|

|7-7-7-7-7-7-7-7|7-7-7-7-7-7-7-7| (x3)

|7-7-7-7-7-7-7-7|7-7-7-7-7-7-7-7|

|---------------|---------------|

Sun... child...

|-------------0---------|-------------0-----0---|

|-------------0---------|-------------0-----0---|

|-9--9--9--9--9--9--9--9|-9--9--9--9--9--9--9--9|

|10-10-10-10-10-10-10-10|10-10-10-10-10-10-10-10|

|10-10-10-10-10-10-10-10|10-10-10-10-10-10-10-10|

|-----------------------|-----------------------|

Sun... child...

|----------|---0------| |----------|

|-------0--|-----0----| |-------0~-|

|-----5----|-------5--| |-----5----|

|---7------|-7--------| (x4) |---7------|

|-0--------|----------| |-0--------|

|----------|----------| |----------|

Added by tabs-database.com and our distinguished partners

Get this song at:  amazon.com sheetmusicplus.com

Share your thoughts

0 Comments found