Verdena

Verdena - Starless bass tab

VERDENA - STARLESS  

BASS TAB by BloodSugarSexMagik (afinocchiella@libero.it)

riff1:

G|---------------|

D|--10h9---------|

A|---------------|

E|-0------0--8/10|

Finale verso 1:

G|-----------------------------------------|

D|-----------------------------------------|

A|-8-8-8-8-8-8-8-8/10-10-10-10-10-10-10-10-|

E|-----------------------------------------|

Finale verso 2:

       ...il male che vorrei per te.....per te

G|---------------------------------------------|

D|---------------------------------------------|

A|-------------------10--12--15--17--19--20----|

E|---------------------------------------------|

    

Post-verso:

G|----------------------------------------------------------|

D|---------------------------------------------------7/9----|

A|----7-----9/10---9-----10/12------7-----9/10---9----------|

E|-0----0-0------0---0-0---------0----0-0------0---0--------|

G|-----------------------------------------------------------|

D|------------------------------------------------12---------|

A|----7------9/10---9-----10/12-----7-----9/10--------12-----|

E|-0----0-0-------0---0-0---------0---0-0------0-------------|

Quindi la prima riga del post-verso 2 v.

Coda:    ....sunchild....

G|--------------------------------------|

D|--------------------------------------|

A|--15--14--12--17--15--14--19--14--17--|

E|--------------------------------------|

(le note a 17 e a 19 si possono suonare risp. a 12 e 14 sulla corda successiva(Ab)

STRUTTURA:

Entra con la batteria: riff 1 x 10

Fin.verso 1

Riff 1 x 7

Fin.verso 2

Break: solo chitarra

Bridge: ripeti riff 1 fino a 5:17 di durata

Coda

Outro: solo chitarra

Get this song at:  amazon.com sheetmusicplus.com

Share your thoughts

0 Comments found