Verdena

Verdena - Pixel guitar tab

Artist: Verdena

Song: Pixel

Album: Verdena

Tabbed by kurt826

e|-----------------------------------------------------------------|

B|-8-8-8-8-8-10-8-7-8-8-8-8-10-8-7-8-8-8-8-10-8-7-8-8-/12-12-13-12-|

G|-0-0-0-0-0--0-0-0-0-0-0-0--0-0-0-0-0-0-0--0-0-0-0-0---0--0--0--0-|

D|-----------------------------------------------------------------|

A|-----------------------------------------------------------------|

E|-----------------------------------------------------------------|

With bass and drum starts a 2nd guitar:

e|-----------------------------------------------------------------------|

B|-8-8-8-8-8-8-8-8-7-7-7-7-7-710875-5-5-5-5-5-5-51313131312121212------|

G|-0-0-0-0-0-0-0-0-0-0-0-0-0-0-0-0-0-0-0-0-0-0-0-0-0-0-0-0-0-0-0-0-------|

D|-----------------------------------------------------------------------|

A|-----------------------------------------------------------------------|

E|-----------------------------------------------------------------------|

e|-----------------------------------------------------------------------|

B|-3-3-3-3-3-3-3-3-3-3-3-3-3-3-3-3-0-0-0-0-0-0-0-0-0-1-1-1-1-1-0-0-------|

G|-0-0-0-0-0-0-0-0-0-0-0-0-0-0-0-0-4-4-4-4-4-4-4-4-0-0-0-0-0-0-0-0-------|

D|-5-5-5-5-5-5-5-5-4-4-4-4-4-4-4-4-2-2-2-2-2-2-2-2-----------------------|

A|-----------------------------------------------------------------------|

E|-----------------------------------------------------------------------|

e|------------------------------------------------------------------------|

B|-8-8-8-8-8101012121087-7-7-7-7101012121085-5-5-5-5-5-5-51313131313/151515

G|-0-0-0-0-0--0--0--0--0-0-0-0-0--0--0--0--0-0-0-0-0-0-0-0-0-0-0-0-0-0-0-0|

D|------------------------------------------------------------------------|

A|------------------------------------------------------------------------|

E|------------------------------------------------------------------------|

e|------------------------------------------------------------------------|

B|-3-3-3-3-3-3-3-3-3-3-3-3-3-3-3-3-0-0-0-0-0-0-0-0-0-1-1-1-1-1-0-0--------|

G|-0-0-0-0-0-0-0-0-0-0-0-0-0-0-0-0-4-4-4-4-4-4-4-4-0-0-0-0-0-0-0-0--------|

D|-5-5-5-5-5-5-5-5-4-4-4-4-4-4-4-4-2-2-2-2-2-2-2-2------------------------|

A|------------------------------------------------------------------------|

E|------------------------------------------------------------------------|

e|---------------------------------------------------------------------|

B|-------------------------------------------------8-8-8-8-8-8-8-8-8---|

G|-------------------------------------------------0-0-0-0-0-0-0-0-0---|

D|-5------4------12-7-5-12-7-5-5-5-5-5-5-5-7-7-7-7---------------------|

A|---------------------------------------------------------------------|

E|---------------------------------------------------------------------|

1. No io non sò com'è

2. Ora non sei più che mai

1. ma mi sembra inutile

2. una visione semplice

1. dirti di più perchè

2. vorrei di più perchè

1. non ci sei

2. non ci sei

Intro with 2 guitar

Chorus:

e|------------------------------------------------------------------------

B|-----------------3-3-3-3-3-3-3-3-3-3-3-3--------------------------------

G|-----------------4-4-4-4-4-4-4-4-4-4-4-4-4-4-4-4-4-4-4-4-4-4-5-5-5-5-5--

D|-5-5-5-5-5-5-5-5-4-4-4-4-4-4-4-4-4-4-4-4-2-2-2-2-2-2-2-2-2-2-5-5-5-5-5--

A|-5-5-5-5-5-5-5-5-2-2-2-2-2-2-2-2-2-2-2-2-2-2-2-2-2-2-2-2-2-2-3-3-3-3-3--

E|-3-3-3-3-3-3-3-3-------------------------0-0-0-0-0-0-0-0-0-0------------

1. Io tremo con lei forse ci sei io vorrei di più un po'

2. Io contro di me è come vorrei sfiorarti di più ah

E|-------------|

B|-------------|

G|7-7-7--------|

D|7-7-7--------|

A|5-5-5--------|

E|-------------|

1.Di lei

2.Ah

Post chorus:

E|-----------------------------------|-----------------|--------------------|

B|-----------------------------------|-----------------|--------------------|

G|-----------------------------------|-----4^-------4^-|--------------------|

D|-5-5-75-4-5----5-5-75-4-5----------|-5-5----5-5-5----|-2-2-2-2-2-3-3-2-3--|

A|-5-5------5----5-5------5----------|-5-5----5-5-5----|-2-2-2-2-2-3-3-2-3--|

E|-3-3------3----3-3------3--/15----|-3-3----3-3-3----|-0-0-0-0-0-1-1-0-1--|

OH OH | this part plays 6 times |

1. Non so supersfogo che non c'è

2. Non so cosa qui c'è che non c'è

Solo:

e|--------------------------------------------------------------------------|

B|--------------------------------------------------------------------------|

G|-7----/12---5-0-4-0-/7-5-4---/11-11-12-12-5-4----11-12-12-11-12-11-12---14|

D|--------------------------------------------------------------------------|

A|--------------------------------------------------------------------------|

E|--------------------------------------------------------------------------|

e|--------------------------------------------------------------------------|

B|---------------------------------------------------------15-15-15-15-18---|

G|14-16-16-12-11-11-12-14-14-16-16---16-17-16-14-16-17-17-------------------|

D|--------------------------------------------------------------------------|

A|--------------------------------------------------------------------------|

E|--------------------------------------------------------------------------|

e|--------18-18-|

B|-18.-18/------|

G|--------------|

D|--------------|

A|--------------|

E|--------------|

Then post chorus

Chorus

Outro and post chorus

End...

Get this song at:  amazon.com sheetmusicplus.com

Share your thoughts

0 Comments found