Verdena

Verdena - Pixel bass tab

Verdena

PIXEL

Intro+Strofe+Ritornello                             Prima volta     Seconda volta

Gb|------------------------------------------------|---------------|---------------

Db|------------------------------------------------|---------------|---------------

Ab|------------------------------------------------|--3-3-3-3-3-2-2|-3-3-3-3-3-5-5-  

Eb|-3-3-3-3-3-3-3-3-7-7-7-7-7-7-7-7/0-0-0-0-0-0-0-0|---------------|---------------                                            

Fine ritornello

Gb|--------------------------

Db|--------------------------

Ab|-----5--------5-----------      

Eb|-3-3---3-3-3----3-3-3-3-3-    

Ponte

Gb|-----------------------------------

Db|-----------------------------------

Ab|-----5-------5-------------------5-

Eb|-3-3----3-3----0-0-0-1-1-0-1-3-3---

/= slide

^= bend

x= armonica (queste note sfiorando solo le corde)

per suggerimenti o rimproveri scrivi a: gallottaluigi@tin.it

Get this song at:  amazon.com sheetmusicplus.com

Share your thoughts

0 Comments found