Verdena

Verdena - Piuma guitar tab

PIUMA

Verdena

From: Valvonauta EP

Tabbed by Denial Guitar (DenialGtr@hotmail.com)

Tune 1/2 step down (Eb Ab Db Gb Bb eb)

Intro

|------------------|-----------------|

|-7----7--7s9----9-|---5----7----7---|

|-7--7----7s9--9---|-6---6--7--7---7-|

|------------------|-----------------| (x2)

|-5-------5s7------|-4------5--------|

|------------------|-----------------|

D E C#m D

Verse 1

|------------------|-----------------|

|-7----7--7s9----9-|---5----7----7---|

|-7--7----7s9--9---|-6---6--7--7---7-|

|------------------|-----------------| (x4)

|-5-------5s7------|-4------5--------|

|------------------|-----------------|

D E C#m D

Non c'è più un'immagine

ma sento che la vorrei con

me, lo sai che c'è, io

penso che ci riuscirei

Chorus 1

|--------------|--------------|--------------|--------------|

|-2----2---2---|-2----2---2---|-5----5---5---|-7----7---7---|

|-2--2-------2-|-2--2-------2-|-6--6-------6-|-7--7-------7-|

|--------------|--------------|--------------|--------------|

|-0------0-----|-0------0-----|-4------4-----|-5------5-----|

|--------------|--------------|--------------|--------------|

A C#m D

Qualcuno dentro i sensi miei, qual...

|--------------|--------------|--------------|--------------|

|-10---10-10---|-9----9---9---|-5----5---5---|-7----7---7---|

|-11-11-----11-|-9--9-------9-|-6--6-------6-|-7--7-------7-|

|--------------|--------------|--------------|--------------|

|-9------9-----|-7------7-----|-4------4-----|-5------5-----|

|--------------|--------------|--------------|--------------|

F#m E C#m D

cosa che si posa in fondo dentro me

Verse 2

|--------------|--------------|--------------|--------------|

|-7----7---7---|-9----9---9---|-5----5---5---|-7----7---7---|

|-7--7-------7-|-9--9-------9-|-6--6-------6-|-7--7-------7-|

|--------------|--------------|--------------|--------------|

|-5------5-----|-7------7-----|-4------4-----|-5------5-----|

|--------------|--------------|--------------|--------------|

D E C#m D

Dentro non c'è io sento lei

poi affondo nel vuoto che io giuro che c'e'

penso a come sei e a come tutto urla in te

un sommergibile io giuro lo vorrei

Chorus 2

|--------------|--------------|--------------|--------------|

|-2----2---2---|-2----2---2---|-5----5---5---|-7----7---7---|

|-2--2-------2-|-2--2-------2-|-6--6-------6-|-7--7-------7-|

|--------------|--------------|--------------|--------------|

|-0------0-----|-0------0-----|-4------4-----|-5------5-----|

|--------------|--------------|--------------|--------------|

A C#m D

Il vuoto dentro i sensi miei, io

|--------------|--------------|--------------|--------------|

|-10---10-10---|-9----9---9---|-5----5---5---|-7----7---7---|

|-11-11-----11-|-9--9-------9-|-6--6-------6-|-7--7-------7-|

|--------------|--------------|--------------|--------------|

|-9------9-----|-7------7-----|-4------4-----|-5------5-----|

|--------------|--------------|--------------|--------------|

F#m E C#m D

sento che sei tutto quello che vorrei

|--------------|--------------|--------------|--------------|

|-7----7---7---|-9----9---9---|-5----5---5---|-7----7---7---|

|-7--7-------7-|-9--9-------9-|-6--6-------6-|-7--7-------7-|

|--------------|--------------|--------------|--------------|

|-5------5-----|-7------7-----|-4------4-----|-5------5-----|

|--------------|--------------|--------------|--------------|

D E C#m D

che vorrei

Interlude

|------------------|-----------------|-----------------|-----------------|

|-7----7--7s9----9-|---5----7----7---|-10----10-9----9-|---5----7----7---|

|-7--7----7s9--9---|-6---6--7--7---7-|-11-11----9--9---|-6---6--7--7---7-|

|------------------|-----------------|-----------------|-----------------|

|-5-------5s7------|-4------5--------|-9--------7------|-4------5--------|

|------------------|-----------------|-----------------|-----------------|

D E C#m D F#m E C#m D

|------------------|-----------------|----------------|----------------|

|-7-----7s10----10-|-12-----10----10-|-9----9--7----7-|---7-------7--5-|

|-7--7--7s11-11----|-13--13-11-11----|-9--9----7--7---|-----7---7----6-|

|------------------|-----------------|----------------|----------------|

|-5-----5s9--------|-11------9-------|-7-------5------|-5-----5------4-|

|------------------|-----------------|----------------|----------------|

D F#m G#m F#m E D

Verse 3 (the same as 1)

D E C#m D

Mi sento invicibile

D E C#m D

e sento che ti vorrei con

D E C#m D

me, lo sai che puoi

D E C#m D

io penso che ci riuscirei

[Repeat chorus 1]

Coda

|--------------|--------------|

|-5----5---5---|-7----7---7---|

|-6--6-------6-|-7--7-------7-|

|--------------|--------------| (x5)

|-4------4-----|-5------5-----|

|--------------|--------------|

C#m D

Dentro me

Get this song at:  amazon.com sheetmusicplus.com

Share your thoughts

0 Comments found