Verdena

Verdena - Phantastica guitar tab

PHANTASTICA

Verdena

Album: Il suicidio del samurai ('04)

Accordatura 1 semitono sotto (Eb Ab Db Gb Bb eb)

Intro

|-------------|-------------|---------------|---------------|

|-----3-----5-|-5h6--6~-----|--------3-3-3-3|--------1-1-1-1|

|---0-----0---|-------------|--------3-3-3-3|--------2-2-2-2|

|-------------|-------------|--------5-5-5-5|--------3-3-3-3|

|-1-----3-----|-------------|5-5-5-5--------|3-3-3-3--------|

|-------------|-------------|3-3-3-3--------|1-1-1-1--------|

|-------------|------5~-----|---------------|---------------|

|-----3-----5-|-5h6---------|--------3-3-3-3|--------1-1-1-1|

|---0-----0---|-------------|--------3-3-3-3|--------2-2-2-2|

|-------------|-------------|--------5-5-5-5|--------3-3-3-3|

|-1-----3-----|-------------|5-5-5-5--------|3-3-3-3--------|

|-------------|-------------|3-3-3-3--------|1-1-1-1--------|

Strofa 1

|-------------|------------|-------0-----|-------------|

|-----3-----5-|-5h6--6-----|-------------|-------3-----|

|---0-----0---|--------7---|---------5---|---------3---|

|-------------|----------7-|---5-------5-|---5-------5-| (x2)

|-1-----3-----|------------|-3---3-------|-------------|

|-------------|------------|-------------|-3---3-------|

Racconto favole su di te

che ascolti così preziosa... mente

|-----------|----------|------6-----6|----6-----6|-----------------|---------------|

|----3-----5|5h6--6----|--------6----|6-----6----|-----------------|---------------|

|--0-----0--|-------7--|--7-------7--|--7-----7--|6-6-6-6-6-6-6-6-6|6-6-6-6-6-6-6-6|

|-----------|---------7|8---8--------|-----------|7-7-7-7-7-7-7-7-7|7-7-7-7-7-7-7-7|

|1-----3----|----------|-------------|-----------|7-7-7-7-7-7-7-7-7|7-7-7-7-7-7-7-7|

|-----------|----------|-------------|-----------|5-5-5-5-5-5-5-5-5|5-5-5-5-5-5-5-5|

Sei un fiore insano tu che si guarda con occhi porpora

Rit

|---------------|---------------|---------------|---------------|

|6-6-6-6-6-6-6-6|6-6-6-6-5-5-5-5|---------------|---------------|

|7-7-7-7-7-7-7-7|7-7-7-7-5-5-5-5|3-3-3-3-3-3-3-3|3-3-3-3-3-3-3-3|

|7-7-7-7-7-7-7-7|7-7-7-7-5-5-5-5|5-5-5-5-5-5-5-5|5-5-5-5-5-5-5-5| (x2)

|5-5-5-5-5-5-5-5|5-5-5-5-3-3-3-3|5-5-5-5-5-5-5-5|5-5-5-5-5-5-5-5|

|---------------|---------------|3-3-3-3-3-3-3-3|3-3-3-3-3-3-3-3|

Correggimi...

mi se tutto questo è debo... le Quello che...

|---------------|---------------|---------------|---------------|

|6-6-6-6-6-6-6-6|6-6-6-6-5-5-5-5|---------------|5-5-5-5-5-5-5-5|

|7-7-7-7-7-7-7-7|7-7-7-7-5-5-5-5|3-3-3-3-3-3-3-3|5-5-5-5-5-5-5-5|

|7-7-7-7-7-7-7-7|7-7-7-7-5-5-5-5|5-5-5-5-5-5-5-5|5-5-5-5-5-5-5-5|

|5-5-5-5-5-5-5-5|5-5-5-5-3-3-3-3|5-5-5-5-5-5-5-5|3-3-3-3-3-3-3-3|

|---------------|---------------|3-3-3-3-3-3-3-3|---------------|

fai non crea più attenzione, non coinvol... ge!

Strofa 2 (come la 1)

Questo non è reale

Confronto le idee ed accendo le stelle

C'è un cristo che sanguina e ci guarda con rabbia

Rit 2 (come il rit 1)

E come...

sai tu sei per me colpevole, quello che...

fai non crea più attenzione, non coinvolge

Solo

|-------------|-----------|------------|------------------|

|-----3-----5-|-----------|------------|------------------|

|---0-----0---|-9h10-10~--|-10h12-12~--|-12h14-12-10-10~--|

|-------------|-----------|------------|------------------|

|-1-----3-----|-----------|------------|------------------|

|-------------|-----------|------------|------------------|

|---------------|-----------|------------|------------------|

|---------------|-----------|------------|------------------|

|-7h0-7-7/9p0-9-|-9h10-10~--|-10h12-12~--|-12h14-12-10-10~--|

|---------------|-----------|------------|------------------|

|---------------|-----------|------------|------------------|

|---------------|-----------|------------|------------------|

Strofa 3

|-------------|------------|-------0-----|-------------|

|-----3-----5-|-5h6--6-----|-------------|-------3-----|

|---0-----0---|--------7---|---------5---|---------3---|

|-------------|----------7-|---5-------5-|---5-------5-| (x2)

|-1-----3-----|------------|-3---3-------|-------------|

|-------------|------------|-------------|-3---3-------|

L'aggressività non mi avrà

Confonde le idee ed affetta la gente

|-------------|------------|--------------|------------|-------------|

|-----3-----5-|-5h6--6-----|-------6----6-|-----6----6-|-----6-----6-|

|---0-----0---|--------7---|---7-----7----|-7-----7----|-7-----7-----|

|-------------|----------7-|-7---7-----7--|---7-----7--|---7-----7---|

|-1-----3-----|------------|--------------|------------|-------------|

|-------------|------------|--------------|------------|-------------|

C'è un dio che sanguina, che sanguina...

Coda

|---------------|---------------|-----------------|---------------|

|---------------|---------------|-----------------|---------------|

|--------5-5-5-5|--------7-7-7-7|-----------------|6-6-6-6-6-6-6-6|

|3-3-3-3-5-5-5-5|5-5-5-5-7-7-7-7|8-8-8-8-8-8-10-10|7-7-7-7-7-7-7-7| (x2)

|3-3-3-3-3-3-3-3|5-5-5-5-5-5-5-5|8-8-8-8-8-8-10-10|7-7-7-7-7-7-7-7|

|1-1-1-1--------|3-3-3-3--------|6-6-6-6-6-6--8--8|5-5-5-5-5-5-5-5|

E credo di essere anormale, ebbene non lo so!

Mi vedi? Temi? Credi io ti userò?

|-------------|--------------|-----------------|---------------|

|-------------|--------------|-----------------|---------------|

|-----2-----5-|-----3------7-|-----------------|6-6-6-6-6-6-6-6|

|---------5---|----------7---|8-8-8-8-8-8-10-10|7-7-7-7-7-7-7-7| (x2)

|---3---3-----|---5----5-----|8-8-8-8-8-8-10-10|7-7-7-7-7-7-7-7|

|-1-----------|-3------------|6-6-6-6-6-6--8--8|5-5-5-5-5-5-5-5|

|-------------|--------------|

|-------------|-3------------|

|-----2-----5-|-3------------|

|---------5---|-5------------|

|---3---3-----|-5------------|

|-1-----------|-3------------|

Get this song at:  amazon.com sheetmusicplus.com

Share your thoughts

0 Comments found