Verdena

Verdena - Ovunque guitar tab

OVUNQUE

Verdena

Album: Verdena, 1999

Tabbed by Denial Guitar (DenialGtr@hotmail.com)

Tune 1/2 step down (Eb Ab Db Gb Bb eb)

Main riff

|-----------------|-----------------|-----------------|-----------------|

|-----------------|-----------------|-----------------|-----------------|

|-5-5-5-5-5-5-5-5-|-4-4-4-4-4-4-4-4-|-4-4-4-4-4-2-2-2-|-4-4-4-4-4-4-4-4-|

|-----------------|-----------------|-----------------|-----------------|

|-3-3-3-3-3-3-3-3-|-3-3-3-3-3-3-3-3-|-2-2-2-2-2-2-2-2-|-3-3-3-3-3-3-3-3-|

|-----------------|-----------------|-----------------|-----------------|

Intro: main riff x2

Verse 1 (main riff x4)

E' buio ormai, non mi frega se piangi o no

Oh io come te, confusione!

Ora lo so, non mi sento piĆ¹ bene da un po'

Quello che fai non mi basta mai

Chorus

|-----------------|---------------------------|

|-----------------|---------------------------|

|-9-9-9-9---------|---------------------------|

|-9-9-9-9s2-2-2-2-|-2s10-10-10-10-10-10-10-10-| (x4)

|-7-7-7-7s2-2-2-2-|-2s10-10-10-10-10-10-10-10-|

|---------0-0-0-0-|-0s8--8--8--8--8--8--8--8--|

Ovunque

sei! Ovunque

sei ci sei! Ovunque

sei! Ovunque!

|-------------------------------|

|-------------------------------|

|-9-9-9-9-----9-9-9-9-----9-9-9-|

|-9-9-9-9-----9-9-9-9-----9-9-9-|

|-7-7-7-7-----7-7-7-7-----7-7-7-|

|-------------------------------|

Verse 2 (main riff x2)

Mi spazzi via e mi vedo volare lontano

Che male fa rivedermi in me

[Repeat chorus]

Solo

|---------------|---------------|---------------|---------------|

|---------------|---------------|---------------|---------------|

|---------------|---------------|-4h5-5-4-4-4-4-|-4h5-5-4-4-4-4-|

|---------------|---------------|---------------|---------------|

|---------------|---------------|---------------|---------------|

|---------------|---------------|---------------|---------------|

|

|---------------|---------------|---------------|---------------|

|---------------|---------------|---------------|---------------|

|5-5-5-5-5-5-5-5|4-4-4-4-4-4-4-4|4-4-4-4-4-2-2-2|4-4-4-4-4-4-4-4|

|---------------|---------------|---------------|---------------|

|3-3-3-3-3-3-3-3|3-3-3-3-3-3-3-3|2-2-2-2-2-2-2-2|3-3-3-3-3-3-3-3|

|---------------|---------------|---------------|---------------|

E' buio ormai...

|---------------|---------------|---------------|---------------|

|---------------|---------------|---------------|---------------|

|-4h5-5-4-4-4-4-|-4h5-5-4-4-4-4-|-4h5-5-4-4-4-4-|-4h5-5-4-4-4-4-|

|---------------|---------------|---------------|---------------|

|---------------|---------------|---------------|---------------|

|---------------|---------------|---------------|---------------|

|

|---------------|---------------|---------------|---------------|

|---------------|---------------|---------------|---------------|

|5-5-5-5-5-5-5-5|7-7-7-7-9-9-9-9|9-9-9-9-9-9-9-9|7-7-7-7-7-7-7-7|

|---------------|---------------|---------------|---------------|

|3-3-3-3-3-3-3-3|5-5-5-5-7-7-7-7|7-7-7-7-7-7-7-7|5-5-5-5-5-5-5-5|

|---------------|---------------|---------------|---------------|

|---------------|---------------|---------------|---------------|

|---------------|---------------|---------------|---------------|

|-4/7-7-7/9-9-9-|-9-9/12-12-12~-|-12-11--7-9-7--|---------7~----|

|---------------|---------------|---------------|-7-9-9-9-------|

|---------------|---------------|---------------|---------------|

|---------------|---------------|---------------|---------------|

|

|---------------|---------------|---------------|---------------|

|---------------|---------------|---------------|---------------|

|5-5-5-5-5-5-5-5|7-7-7-7-7-7-7-7|9-9-9-9-9-9-9-9|7-7-7-7-7-7-7-7|

|---------------|---------------|---------------|---------------|

|3-3-3-3-3-3-3-3|5-5-5-5-5-5-5-5|7-7-7-7-7-7-7-7|5-5-5-5-5-5-5-5|

|---------------|---------------|---------------|---------------|

|---------------|---------------|---------------|---------------|

|---------------|---------------|---------------|---------------|

|-4h5-4--5-5p4--|-5-5-5/7-------|---------------|---------------|

|---------------|---------5-5-7-|-9~--------7-5-|-5~------------|

|---------------|---------------|---------------|---------------|

|---------------|---------------|---------------|-----0/12

Get this song at:  amazon.com sheetmusicplus.com

Share your thoughts

0 Comments found