Verdena

Verdena - Ormogenia guitar tab

Artist: Verdena

Song: Ormogenia

Tabbed by kurt826

Tuning: Eb Ab Db Gb Bb eb

[Intro]

|---------------------------------------------

|---------------------------------------------

|---------------------------------------------

|-9-11-11-9-11-11-11-11-9-11-11-9-11-11-11-11- x2

|-0-0--0--0-0--0--0--0--0-0--0--0-0--0--0--0--

|---------------------------------------------

then 2 times with bass and drum

[verse]

A D

|---------------------------------------------

|---------------------------------------------

|---------------------------------------------

|---11-11-11-11-11-11-11-11-11-11-11-11-9-9-9-

|-0-0--0--0--0--0--0--0--0--0--0--0--0--0-0-0-

|---------------------------------------------

affogami

F# A D A D

|-------------------------------------------------------------------

|-------------------------------------------------------------------

|-------------------------------------------------------------------

|-11-11-11-11-11-11-12-12-9-11-11-9-11-11-12---9-11-11-9-11-11-12---

|-0--0--0--0--0--0--0--0--0-0--0--0-0--0--0----0-0--0--0-0--0--0----

|-------------------------------------------------------------------

dentro____________ te

A D

|-------------------------------------------------

|-------------------------------------------------

|-------------------------------------------------

|-11-11-11-11-11-11-11-11-11-11-11-11-11-11-11-11-

|-0--0--0--0--0--0--0--0--0--0--0--0--0--0--0--0--

|-------------------------------------------------

io non ho mai___________

F# A D A D

|-------------------------------------------------------------------

|-------------------------------------------------------------------

|-------------------------------------------------------------------

|-11-11-11-11-11-11-11-11-9-11-11-9-11-11-11---9-11-11-9-11-11-12---

|-0--0--0--0--0--0--0--0--0-0--0--0-0--0--0----0-0--0--0-0--0--0----

|-------------------------------------------------------------------

un po' di me

A D

|------------------------------------------------

|------------------------------------------------

|------------------------------------------------

|-9-11-11-11-11-11-11-11-11-11-11-11-11-11-11-11-

|-0-0--0--0--0--0--0--0--0--0--0--0--0--0--0--0--

|------------------------------------------------

bruciami

F# A D A D

|-------------------------------------------------------------------

|-------------------------------------------------------------------

|-------------------------------------------------------------------

|-11-11-11-11-11-11-11-11-9-11-11-9-11-11-12---9-11-11-9-11-11-12---

|-0--0--0--0--0--0--0--0--0-0--0--0-0--0--0----0-0--0--0-0--0--0----

|-------------------------------------------------------------------

stai con me

[chorus]

F A F A

|-----------------------------------------------------------------

|-----------------------------------------------------------------

|-2-2-2-2-2-2-2-2-2-2-2-2-2-2-2-2-2-2-2-2-2-2-2-2-2-2-2-2-2-2-2-2-

|-3-3-3-3-3-3-3-3-2-2-2-2-2-2-2-2-3-3-3-3-3-3-3-3-2-2-2-2-2-2-2-2-

|-----------------------------------------------------------------

|-----------------------------------------------------------------

con me con me

F A F A

|-----------------------------------------------------------------

|-----------------------------------------------------------------

|-5-5-5-5-5-5-5-5-4-4-4-4-4-4-4-4-5-5-5-5-5-5/7--4-4-4-4-4-4-4-4-

|-3-3-3-3-3-3-3-3-2-2-2-2-2-2-2-2-3-3-3-3-3-3/5--2-2-2-2-2-2-2-2-

|-----------------------------------------------------------------

|-----------------------------------------------------------------

con me con me con me

A D A D

|-------------------------------------------

|-------------------------------------------

|-------------------------------------------

|-9-11-11-9-11-11-12---9-11-11-9-11-11-12--- x2

|-0-0--0--0-0--0--0----0-0--0--0-0--0--0----

|-------------------------------------------

[2nd verse]

A D

|-----------------------------------------------

|-----------------------------------------------

|-----------------------------------------------

|-11-11-11-11-11-11-11-11-11-11-11-11-11-9-9-11-

|-0--0--0--0--0--0--0--0--0--0--0--0--0--0-0-0--

|-----------------------------------------------

affogami

F# A D A D

|-----------------------------------------------------------------

|-----------------------------------------------------------------

|-------------------9---------------------------------------------

|-11-11-11-11-11-11-----9-11-11-9-11-11-12---9-11-11-9-11-11-12---

|-0--0--0--0--0--0--0---0-0--0--0-0--0--0----0-0--0--0-0--0--0----

|-----------------------------------------------------------------

dentro te

A D

|-------------------------------------------------

|-------------------------------------------------

|-------------------------------------------------

|-11-11-11-11-11-11-11-11-11-11-11-11-11-11-11-11-

|-0--0--0--0--0--0--0--0--0--0--0--0--0--0--0--0--

|-------------------------------------------------

io non ho mai

F# A D A D

|-------------------------------------------------------------------

|-------------------------------------------------------------------

|-------------------------------------------------------------------

|-11-11-11-11-11-11-11-11-9-11-11-9-11-11-12---9-11-11-9-11-11-12---

|-0--0--0--0--0--0--0--0--0-0--0--0-0--0--0----0-0--0--0-0--0--0----

|-------------------------------------------------------------------

un po' di me

[2nd chorus]

F A F A

|-----------------------------------------------------------------

|-----------------------------------------------------------------

|-2-2-2-2-2-2-2-2-2-2-2-2-2-2-2-2-2-2-2-2-2-2-2-2-2-2-2-2-2-2-2-2-

|-3-3-3-3-3-3-3-3-2-2-2-2-2-2-2-2-3-3-3-3-3-3-3-3-2-2-2-2-2-2-2-2-

|-----------------------------------------------------------------

|-----------------------------------------------------------------

con te con te

F A F A

|----------------------------------------------------------------

|----------------------------------------------------------------

|-7-7-7-7-7-7-7-7-2-2-2-2-2-2-2-2-2-2-2-2-2-2----2-2-2-2-2-2-2-2-

|-5-5-5-5-5-5-5-5-2-2-2-2-2-2-2-2-3-3-3-3-3-3/5-2-2-2-2-2-2-2-2-

|----------------------------------------------------------------

|----------------------------------------------------------------

con te con

[bridge]

Bb D Bb D

|-----------------------------------------------------------------------------

|-----------------------------------------------------------------------------

|-10-10-10-10-10-10-10-10-9-9-9-9-9-9-9-9-10-10-10-10-10-12-12--9-9-9-9-9-7-7/

|-8--8--8--8--8--8--8--8--0-0-0-0-0-0-0-0-8--8--8--8--8--10-10--0-0-0-0-0-5-5/

|-----------------------------------------------------------------------------

|-----------------------------------------------------------------------------

Bb D

|-----------------------------------------------------------------------------

|-----------------------------------------------------------------------------

|10-10-10-10-10-10-10-10-9-9-9-9-9-9-9-9-10-10-10-10-10-10-12-12-9-9-9-9-9-9-9

|8--8--8--8--8--8--8--8--0-0-0-0-0-0-0-0-8--8--8--8--8--8--10-10-0-0-0-0-0-0-0

|-----------------------------------------------------------------------------

|-----------------------------------------------------------------------------

Bb D

|-----------------------------------------------

|-----------------------------------------------

|-14-14-14-14-14-12-12-/14-14-14-14-14-14-14-14-

|-12-12-12-12-12-10-10-/12-12-12-12-12-12-12-12-

|-----------------------------------------------

|-----------------------------------------------

Bb D

|-------------------------------------------------

|-------------------------------------------------

|-15-15-15-15-15-15-15-15-14-14-14-14-14-14-14-14-

|-13-13-13-13-13-13-13-13-12-12-12-12-12-12-12-12-

|-------------------------------------------------

|-------------------------------------------------

Bb D

|-----------------------------------------------

|-----------------------------------------------

|-14-14-14-14-14-12-12-/10-10-10-10-10-10-10-10-

|-12-12-12-12-12-10-10-/8--8--8--8--8--8--8--8--

|-----------------------------------------------

|-----------------------------------------------

Bb D

|-----------------------------------------

|-----------------------------------------

|-10-10-10-10-10-10-10-10-9-9-9-9-9-9-9-9-

|-8--8--8--8--8--8--8--8--7-7-7-7-7-7-7-7-

|-----------------------------------------

|-----------------------------------------

Bb D

|-------------------------------------------------

|-------------------------------------------------

|-10-10-10-10-10-10-10-10-10-10-10-10-10-12-12-12-

|-8--8--8--8--8--8--8--8--8--8--8--8--8--10-10-10-

|-------------------------------------------------

|-------------------------------------------------

Bb D

|----------------------------------------------

|----------------------------------------------

|-14-14-14-14-14-14-14-14-14-14-14-14-14-14-15-

|-12-12-12-12-12-12-12-12-12-12-12-12-12-12-13-

|----------------------------------------------

|----------------------------------------------

Bb D

|-------------------------------------------------

|-------------------------------------------------

|-17-17-17-17-17-17-17-17-17-17-19-19-19-19-19-19-

|-15-15-15-15-15-15-15-15-15-15-17-17-17-17-17-17-

|-------------------------------------------------

|-------------------------------------------------

Bb D

|-----------------------------------------------

|-----------------------------------------------

|-19-19-19-19-19-19-19-19-19-19-19-19-19-19-0-0-

|-17-17-17-17-17-17-17-17-17-17-17-17-17-17-0-0-

|-----------------------------------------------

|-----------------------------------------------

A D A D

|-------------------------------------------

|-------------------------------------------

|-------------------------------------------

|-9-11-11-9-11-11-12---9-11-11-9-11-11-12--- x2

|-0-0--0--0-0--0--0----0-0--0--0-0--0--0----

|-------------------------------------------

A

|--------------------

|--------------------

|-11-----------------

|-0------------------

|--------------------

|--------------------

end...

Get this song at:  amazon.com sheetmusicplus.com

Share your thoughts

0 Comments found