Verdena

Verdena - Onan guitar tab

ONAN

Verdena

Album: Solo un grande sasso ('01)

Tabbed by Denial Guitar (DenialGtr@hotmail.com)

Tuning: Db Ab Db Gb Ab eb

Verse 1

|-----------------|------------------|-----------------|------------------|

|-----------------|------------------|-----------------|------------------|

|------11-----11--|--11--------------|------11-----11--|--11--------------|

|-----------------|------------------|-----------------|------------------| (x3)

|--9------9------9|-----9---9-10-9-10|--9------9------9|-----9---9-10-9-10|

|0---0------0-----|0------0----------|9---9------9-----|9------9----------|

Ora sembra inutile

ora voli al limite

Ora che ti sentirei ...di più che mai

|-----------------|------------------|-----------------|----------0--0--0--0-|

|-----------------|------------------|-----------------|----------0--0--0--0-|

|------11-----11--|--11--------------|------11-----11--|--11------11-11-11-11|

|-----------------|------------------|-----------------|----------9--9--9--9-|

|--9------9------9|-----9---9-10-9-10|--9------9------9|-----9----9--9--9--9-|

|0---0------0-----|0------0----------|9---9------9-----|9------9--9--9--9--9-|

ebbene ti raggiungerei

|-----0-----|--------0---|-0-------|-0--------------------|

|-----0-----|--------0---|-0-------|-0--------------------|

|-9---9-----|--------9---|-7----7--|-7--12-12s14-14s16-16s|

|-7---7-----|--------7---|-5----5--|-5--------------------|

|-7---7-----|--------7---|-5----5--|-5--10-10s12-12s14-14s|

|-7---7-----|--------7---|-5----5--|-5--------------------|

Mi spremi e inventi nu...vo...le

|-----0-----|--------0---|-0--------|----------|

|-----0-----|--------0---|-0--------|----------|

|-9---9-----|--------9---|-7--------|----------|

|-7---7-----|--------7---|-5--------|----------|

|-7---7-----|--------7---|-5--------|----------|

|-7---7-----|--------7---|-5--------|----------|

e mi illudo spesso come se...

Verse 2 (the same as 1)

La tua vertigine

non è mai stata semplice

Ora svuoto gli occhi miei, Onan vorrei

ebbene ti raggiungerei

Mi spremi e inventi nuvole

E mi illudo spesso come se...non...

Pre-chorus

|0-----|0-----|0-----|0-------------|-------|-------------|--------|--------|

|0-----|0-----|0-----|0-------------|-------|-------------|--------|--------|

|11----|11----|11----|11-----9-9-7-7|14-----|14-----12----|-11-----|-11-----|

|9-(x8)|9-(x8)|9-(x8)|9-(x4)--------|---(x8)|--(x4)---(x4)|----(x8)|----(x8)|

|9-----|9-----|9-----|9------7-7-5-5|12-----|12-----10----|-9------|-9------|

|9-----|9-----|9-----|9-------------|-------|-------------|--------|--------|

c'è... ti raggiungerei...

Chorus

|-0--------|-0--------|-0--------|-0--------|

|-0--------|-0--------|-0--------|-0--------|

|-7--------|-7--------|-11-------|-11-------|

|-5--(x8)--|-5--(x8)--|-9--(x8)--|-9--(x4)--|

|-5--------|-5--------|-9--------|-9--------|

|-5--------|-5--------|-9--------|-9--------|

non è più impossibile sembri impenetrabile

|-0--------|-0--------|-0--------|-0-----------------|

|-0--------|-0--------|-0--------|-0-----------------|

|-7--------|-7--------|-11-------|-11-------14-14-14-|

|-5--(x8)--|-5--(x8)--|-9--(x8)--|-9--(x4)-----------|

|-5--------|-5--------|-9--------|-9--------12-12-12-|

|-5--------|-5--------|-9--------|-9-----------------|

ora chiedimi xchè non è più così semplice

|-0--------|-0--------|-0--------|-0--------|

|-0--------|-0--------|-0--------|-0--------|

|-7--------|-7--------|-11-------|-11-------|

|-5--(x8)--|-5--(x8)--|-9--(x8)--|-9--(x4)--| (x2)

|-5--------|-5--------|-9--------|-9--------|

|-5--------|-5--------|-9--------|-9--------|

dovrei sopravvivere e ora giuro è impossibile

se ti raggiungerei...

|----------|----------|-----------|-------------------|

|----------|----------|-----------|-------------------|

|-9--------|-9--------|-7---11-12-|-14-------16-------|

|-7--(x8)--|-7--(x8)--|-5---------|----(x4)------(x4)-|

|-7--------|-7--------|-5---9--10-|-12-------14-------|

|-7--------|-7--------|-5---------|-------------------|

Mi spremi e inventi nu... vo...le

|----------|----------|----------|----------|

|----------|----------|----------|----------|

|-9--------|-9--------|-7--------|----------|

|-7--(x8)--|-7--(x8)--|-5--------|----------|

|-7--------|-7--------|-5--------|----------|

|-7--------|-7--------|-5--------|----------|

e mi illudo spesso come se...

Bridge

|------------------|----------------|------------------|------------------|

|------------------|----------------|------------------|------------------|

|11-----11-----11--|11--------------|11-----11-----11--|-119-----97-----|

|------------------|----------------|------------------|------------------|

|---9------9------9|---9---9-10-9-10|---9------9------9|------7-------5---|

|-----0------0-----|-----0----------|-----9------9-----|--------7-------5-|

|-----------------|------------------|-----------------|--------------------|

|-----------------|------------------|-----------------|--------------------|

|-7-----7-----7---|-7/9-----9/11-----|11-----11----11--|11-----11-----11----|

|-----------------|------------------|-----------------|--------------------|

|---5-----5-----5-|-----7--------9---|---9------9-----9|---9------9------9--|

|-----5-----5-----|-------7--------9-|-----9------9----|-----9------9------9|

|--------------|-------------------|

|--------------|-------------------|

|-12-14--14p12-|-1211-11-119-9-9-|

|--------------|-------------------| (x3)

|--------------|-------------------|

|--------------|-------------------|

|--------------|--------------------|

|--------------|--------------------|

|-12-14--14p12-|-1211-11--11-11-11-|

|--------------|--------------------|

|--------------|------------9--9--9-|

|--------------|--------------------|

[Repeat chorus]

Verse 3

|-----------------|------------------|-----------------|------------------|

|-----------------|------------------|-----------------|------------------|

|------11-----11--|--11--------------|------11-----11--|--11--------------|

|-----------------|------------------|-----------------|------------------| (x2)

|--9------9------9|-----9---9-10-9-10|--9------9------9|-----9---9-10-9-10|

|0---0------0-----|0------0----------|9---9------9-----|9------9----------|

La tua vertigine dudù

non è mai stata semplice per...

|-0----------|

|-0----------|

|-11---------|

|-x----------|

|-9----------|

|-0----------|

me!

Get this song at:  amazon.com sheetmusicplus.com

Share your thoughts

0 Comments found