Verdena

Verdena - Nova guitar tab

SOLO UN GRANDE SASSO - NOVA

Intro:

Eb|---x----x----x / -x----x----x / -x----x----x---x--------------|

Bb|---x----x----x / -x----x----x / -x----x----x---x--------------|

Gb|--11---12---12 / 14---11---11 / 14---14---11---9--------------|

Db|---x----x----x / -x----x----x / -x----x----x---x--------------|

Ab|---9---10---10 / 12----9----9 / 12---12----9---7--------------|

Eb|-------------------------------------------------------8/3----|

X1

Eb|-----------------------------------------|

Bb|-----------------------------------------|

Gb|-----------------------------------------|

Db|---2-2-2-2-2-2-2-2-2-2-2-0---------------|

Ab|---0-0-0-0-0-0-5-3-3-3-3-5 / 7--5--------|

Eb|-----------------------------------7-----|

Eb|---x----x----x / -x / -x----x---x / -x----x----x---x--x-------|

Bb|---x----x----x / -x / -x----x---x / -x----x----x---x--x-------|

Gb|--11---12---12 / 14 / 16---16--16 / 19---11---14--11--9-------|

Db|---x----x----x / -x / -x----x---x / -x----x----x---x--x-------|

Ab|---9---10---10 / 12 / 14---14--14 / 17----9---12---9--7-------|

Eb|---------------------------------------------------------8/3--|

Eb|-----------------------------------------|

Bb|-----------------------------------------|

Gb|-----------------------------------------|

Db|---2-2-2-2-2-2-2-2-2-2-2-0---------------|

Ab|---0-0-0-0-0-0-5-3-3-3-3-5 / 7--5--------|

Eb|-----------------------------------7-----|

Eb|------------|------------------------------|

Bb|------------|------------------------------|

Gb|---------11-|---------11-12-12 / 14--------|

Db|------------|------------------------------|

Ab|---10-------|---10-------------------------|

Eb|------10----|------10----------------------|

(X3)

Eb|--------------------------------------------------------------|

Bb|-----------0------------------0---------------------0---------|

Gb|-----5---5---5---5------4---4---4---4--------9----9---9----9--|

Db|---7---7-------7------5---5-------5----/--10---10-------10----|

Ab|--------------------------------------------------------------|

Eb|--------------------------------------------------------------|

(X4) (X4) (X4)

Eb|----------------------------------------------------------------------------|

Bb|----------0------------------0---0--0--0---0------0---------------0---------|

Gb|----4---4---4---4-----4---4--4 h 5--5--5 h 4----4---4-------4---4---4---4---|

Db|--5---5-------5-----5---5----5---5--5--5---5--5-------5---5---5-------5-----|

Ab|----------------------------------------------------------------------------|

Eb|----------------------------------------------------------------------------|

Verso:

Eb|------------------------------------------|

Bb|-----------0------------------0-----------|

Gb|-----5---5---5---5------4---4---4---4-----|

Db|---7---7-------7------5---5-------5-------|

Ab|------------------------------------------|

Eb|------------------------------------------|

(X4) (X4)

Eb|------------------------------------------------------------------------------|

Bb|-----------0---------------------------------------0-----------------0--------|

Gb|-----5---5---5---5------5---5-------7---7----5---5---5---5-----5---5---5---5--|

Db|---7---7-------7------7---7---7 / 9---9----7---7-------7-----7---7-------7----|

Ab|------------------------------------------------------------------------------|

Eb|------------------------------------------------------------------------------|

Eb|----------------------0-0-0---------------------------------------------------|

Bb|-----------0----------0-0-0-------0----0----0----0----------------------------|

Gb|-----4---4---4---4----4-4-4------11---12---11---12----11---12---11---12-------|

Db|---5---5-------5------5-5-5------12---14---12---14-----x----x----x----x-------|

Ab|-------------------------------------------------------9---10----9---10-------|

Eb|------------------------------------------------------------------------------|

(X3)

Eb|------------------------------------------|

Bb|-----------0------------------0-----------|

Gb|-----5---5---5---5------4---4---4---4-----|

Db|---7---7-------7------5---5-------5-------|

Ab|------------------------------------------|

Eb|------------------------------------------|

(X4) (X4)

Eb|------------------------------------------------------------------------------|

Bb|-----------0---------------------------------------0-----------------0--------|

Gb|-----5---5---5---5------5---5-------7---7----5---5---5---5-----5---5---5---5--|

Db|---7---7-------7------7---7---7 / 9---9----7---7-------7-----7---7-------7----|

Ab|------------------------------------------------------------------------------|

Eb|------------------------------------------------------------------------------|

Eb|----------------------0-0-0---------------------------------------------------|

Bb|-----------0----------0-0-0-------0----0----0----0----------------------------|

Gb|-----4---4---4---4----4-4-4------11---12---11---12----11---12---11---12-------|

Db|---5---5-------5------5-5-5------12---14---12---14-----x----x----x----x-------|

Ab|-------------------------------------------------------9---10----9---10-------|

Eb|------------------------------------------------------------------------------|

(X3) ...per poi sorprendermi

Si ripete l'intro:

Eb|---x----x----x / -x----x----x / -x----x----x---x--------------|

Bb|---x----x----x / -x----x----x / -x----x----x---x--------------|

Gb|--11---12---12 / 14---11---11 / 14---14---11---9--------------|

Db|---x----x----x / -x----x----x / -x----x----x---x--------------|

Ab|---9---10---10 / 12----9----9 / 12---12----9---7--------------|

Eb|-------------------------------------------------------8/3----|

X1

Eb|-----------------------------------------|

Bb|-----------------------------------------|

Gb|-----------------------------------------|

Db|---2-2-2-2-2-2-2-2-2-2-2-0---------------|

Ab|---0-0-0-0-0-0-5-3-3-3-3-5 / 7--5--------|

Eb|-----------------------------------7-----|

Eb|---x----x----x / -x / -x----x---x / -x----x----x---x--x-------|

Bb|---x----x----x / -x / -x----x---x / -x----x----x---x--x-------|

Gb|--11---12---12 / 14 / 16---16--16 / 19---11---14--11--9-------|

Db|---x----x----x / -x / -x----x---x / -x----x----x---x--x-------|

Ab|---9---10---10 / 12 / 14---14--14 / 17----9---12---9--7-------|

Eb|---------------------------------------------------------8/3--|

Eb|-----------------------------------------|

Bb|-----------------------------------------|

Gb|-----------------------------------------|

Db|---2-2-2-2-2-2-2-2-2-2-2-0---------------|

Ab|---0-0-0-0-0-0-5-3-3-3-3-5 / 7--5--------|

Eb|-----------------------------------7-----|

Eb|-----------------------------------------------------------------|

Bb|-----------12--12-----------12--12-----------12--12--------------|

Gb|-----------13--13-----------13--13-----------13--13--------------| Tutto il

Db|--14--14-----------14--14-----------14--14------------0--0---0---| pentagramma

Ab|--14--14-----------14--14-----------14--14------------0--0---0---| X4 volte

Eb|---0---0------------0---0------------0---0-----------15-14--15---|

Assolo:

Eb|---------------------------------------------------------|

Bb|---------------------------------------------------------|

Gb|---------------------------------------------------------|

Db|----14h12--14h12--14h12--14^--14h12--14h12--14h12--14^---|

Ab|---------------------------------------------------------|

Eb|---------------------------------------------------------|

Eb|---------------------------------------------------------|

Bb|---------------------------------------------------------|

Gb|----14h12-14-14h12-14^-14h12-14h12-14h12-14^-14h12-14h12-|

Db|---------------------------------------------------------|

Ab|---------------------------------------------------------|

Eb|---------------------------------------------------------|

Eb|---------------------------------------------------------|

Bb|---------------------------------------------------------|

Gb|---------------------------------------------------------|

Db|----14h12--14h12--14h12--14^--14h12--14h12--14h12--14^---|

Ab|---------------------------------------------------------|

Eb|---------------------------------------------------------|

Eb|---------------------------------------------0-----|

Bb|--------------------------------------------16^^---|

Gb|----14h12-14-14h12-14^-14h12-14h12-14h12-----------|

Db|---------------------------------------------------|

Ab|---------------------------------------------------|

Eb|---------------------------------------------------|

Finito l'assolo si ripete la parte prima

Eb|-----------------------------------------------------------------|

Bb|-----------12--12-----------12--12-----------12--12--------------|

Gb|-----------13--13-----------13--13-----------13--13--------------| Tutto il

Db|--14--14-----------14--14-----------14--14------------0--0---0---| pentagramma

Ab|--14--14-----------14--14-----------14--14------------0--0---0---| X4 volte

Eb|---0---0------------0---0------------0---0-----------15-14--15---|

Eb|-----0----0/---0----0----0----0/-----0----0/-----0------------|

Bb|-----0----0/---0----0----0----0/-----0----0/-----0------------|

Gb|-----5----5/---7----4----9----9/----11---11/----12------------|

Db|-----7----7/---9----5---10---10/----12---12/----14------------|

Ab|--------------------------------------------------------------|

Eb|--------------------------------------------------------------|

Eb|-----0---0---0/---0----0---0/---0---0/----0---0---0-----------|

Bb|-----0---0---0/---0----0---0/---0---0/----0---0---0-------0---|

Gb|-----4---5---5/---7----9---9/--11--11/---12--14--16------17---|

Db|-----5---7---7/---9---10--10/--12--12/---14--16--17------19---|

Ab|--------------------------------------------------------------|

Eb|--------------------------------------------------------------|

Eb|--------------------------------------------------------------|

Bb|----------0-----------------0---------------------0-----------|

Gb|-----5------5-----------4------4-------------9-------9--------|

Db|---7---7-------7------5---5-------5-------10---10-------10----|

Ab|--------------------------------------------------------------|

Eb|--------------------------------------------------------------|

(X4) (X4) (X4)

Eb|----------------------------------------------------------------------------|

Bb|----------0------------------0---0--0--0---0------0---------------0---------|

Gb|----4-------4---------4------4 h 5--5--5 h 4--------4-------4-------4-------|

Db|--5---5-------5-----5---5----5---5--5--5---5--5-------5---5---5-------5-----|

Ab|----------------------------------------------------------------------------|

Eb|----------------------------------------------------------------------------|

Verso:

Eb|----------------------------------------------------------------------------|

Bb|-----------0--------------------------0----------0----------------0---------|

Gb|-----5-------5----------5-----------5------5-------5---------5------5-------|

Db|---7---7-------7------7---7---7 / 9------7---7-------7-----7---7------7-----|

Ab|----------------------------------------------------------------------------|

Eb|----------------------------------------------------------------------------|

Eb|------------------------------------------------------------------------------------|

Bb|------------0------------------0-----------------------0--------0-------------0-----|

Gb|-----4--------4----------5-------5--------5----------5------5-----5-------5-----5---|

Db|---5---5--------5------7---7-------7----7---7--7 / 9------7---7-----7---7---7-----7-|

Ab|------------------------------------------------------------------------------------|

Eb|------------------------------------------------------------------------------------|

(X4)

Eb|------------------------------------------------------------------------------|

Bb|-------------0-------------------0-----------------0------------------0-------|

Gb|-------4-------4----------5--------5---------4-------4----------5-------5-----|

Db|-----5---5-------5------7---7--------7-----5---5-------5------7---7-------7---|

Ab|------------------------------------------------------------------------------|

Eb|------------------------------------------------------------------------------|

(X4) (X4) (X4) (X4)

Eb|---------------------------------------------------------------------------|

Bb|----------0---------------0-------------------0-----------------0----------|

Gb|------4------4---------7------7----------9------9-----------11------11-----|

Db|----5---5------5--/--9---9------9--/--10---10-----10--/--12----12------12--|

Ab|---------------------------------------------------------------------------|

Eb|---------------------------------------------------------------------------|

Eb|----------------------------0---|

Bb|--------------0-------------0---|

Gb|--------12------12---------12---|

Db|-----14----14------14------14---|

Ab|--------------------------------|

Eb|--------------------------------|

(X8)

Get this song at:  amazon.com sheetmusicplus.com

Share your thoughts

0 Comments found