Verdena

Verdena - Nella Schiuma guitar tab

NELLA SCHIUMA

Verdena

From: Verdena demotape, 1997

Tabbed by Denial Guitar (DenialGtr@hotmail.com)

Tune 1/2 step down (Eb Ab Db Gb Bb eb)

Intro

|--------|---------------|--------|---------------|----0---|---------------|

|--------|---------------|--------|---------------|----0---|---------------|

|--------|---------------|--------|---------------|----1---|---------------|

|2-------|1-----1-----1--|----2---|1-----1-----1--|----2---|1-----1-----1--|

|--2-----|--2-----2-----2|--2-----|--2-----2-----2|--2-----|--2-----2-----2|

|----0---|----0-----0----|0-------|----0-----0----|0-------|----0-----0----|

|----0--------|---------------|

|----0--------|---------------|

|----1--------|---------------|

|----2--------|1-----1-----1--| (x4)

|2-2----------|--2-----2-----2|

|0-0----0s12s0|----0-----0----|

x x

|--------|---------------|--------|---------------|

|--------|---------------|--------|---------------|

|--------|---------------|--------|---------------|

|----2---|1-----1-----1--|----2---|1-----1-----1--|

|--2-----|--2-----2-----2|--2-----|--2-----2-----2|

|0-------|----0-----0----|0-------|----0-----0----|

Verse 1

|--------|---------------|--------|---------------|

|--------|---------------|--------|---------------|

|--------|---------------|--------|---------------|

|----2---|1-----1-----1--|----2---|1-----1-----1--| (x2)

|--2-----|--2-----2-----2|--2-----|--2-----2-----2|

|0-------|----0-----0----|0-------|----0-----0----|

Come vuoi starĂ² fuori e dentro me

Puoi convincere le mie labbra a perdersi

|--------|---------------|----------------------|

|--------|---------------|----------------------|

|--------|---------------|----------------------|

|----2---|1-----1-----1--|2-2-2-2-2-2-2---------|

|--2-----|--2-----2-----2|2-2-2-2-2-2-2---------|

|0-------|----0-----0----|0-0-0-0-0-0-0--0s12s0-|

le mie labbra a perdersi

Chorus (all x2)

|---------------|---------------|---------------|------------------|

|---------------|---------------|---------------|------------------|

|---------------|---------------|---------------|------------------|

|7-7-7-7-7-7-7-7|7-7-7-7-7-7-7-7|7-7-7-7-7-7-7-7|7-7-7-7-7-7-------|

|7-7-7-7-7-7-7-7|7-7-7-7-7-7-7-7|7-7-7-7-7-7-7-7|7-7-7-7-7-7-------|

|5-5-5-5-5-5-5-5|5-5-5-5-5-5-5-5|5-5-5-5-5-5-5-5|5-5-5-5-5-5--s17b-|

Rose lesbiche... posso credere!

Rubi ma non sei... carne giovane!

|---------------|---------------|----0--------|---------------|

|---------------|---------------|----0--------|---------------|

|---------------|---------------|----1--------|---------------|

|2-2-2-2-2-2-2-2|1-----1-----1--|----2--------|1-----1-----1--|

|2-2-2-2-2-2-2-2|--2-----2-----2|2-2----------|--2-----2-----2|

|0-0-0-0-0-0-0-0|----0-----0----|0-0----0s12s0|----0-----0----|

x x

Verse 2 (the same as 1)

Come vuoi sarĂ² l'ombra dei miei guai

fiori in foglie e poi scopi labbra e fiori blu

scopi labbra e fiori blu

[Repeat chorus]

Bridge

|---------------|---------------|

|---------------|---------------|

|---------------|--------4-4-4-4|

|4-4-4-4-4-4-4-4|5-5-5-5-4-4-4-4| (x8)

|4-4-4-4-4-4-4-4|5-5-5-5-2-2-2-2|

|2-2-2-2-2-2-2-2|3-3-3-3--------|

Verbena!

|----------|-----------------------|----------|---------------------|

|----------|-----------------------|----------|---------------------|

|-11-------|12-12-12-12-16-16-16-16|-11-------|-12-12-12-12-9-9-9-9-|

|-----(x8)-|-----------------------|-----(x8)-|---------------------| (x2)

|--9-------|10-10-10-10-14-14-14-14|--9-------|-10-10-10-10-7-7-7-7-|

|----------|-----------------------|----------|---------------------|

Ending

|--------|---------------|--------|---------------|

|--------|---------------|--------|---------------|

|--------|---------------|--------|---------------|

|----2---|1-----1-----1--|----2---|1-----1-----1--|

|--2-----|--2-----2-----2|--2-----|--2-----2-----2|

|0-------|----0-----0----|0-------|----0-----0----|

Get this song at:  amazon.com sheetmusicplus.com

Share your thoughts

0 Comments found