Verdena

Verdena - Nel Mio Letto guitar tab

NEL MIO LETTO

Verdena

Album: Solo un grande sasso, 2001

Tabbed by Denial Guitar (DenialGtr@hotmail.com)

Tune 1/2 step down (Eb Ab Db Gb Bb eb)

Chords:

C x32010

Am x02210

G 320033

Dm xx0231

Bb x13331

F7+ x33210

G6 x55430

Verse 1

C Am G Dm Am Bb G

E' me...meglio che ci sia un'ora in più

C Am G Dm Am Bb G

Io dormo e giudico le ombre su di noi

Chorus

Am G F7+ Am G F7+ G6 F7+

E non ho più fretta, e non ho più fretta, perchè ho paura, paura!

Verse 2

C Am G Dm Am Bb G

E qui starò meglio che mai, avvolto in me

[Repeat chorus]

Solo

|-------------------------------------------------------------------------|

|------13b~-13h15p13------------------------------------------------------|

|-------------------------------------------------------------------------|

|-12b~---------------15p14h15-17p15-------------------12h14-14h15~-15s17~-|

|-----------------------------------17p15p14h15-15h17---------------------|

|-------------------------------------------------------------------------|

C Am G Dm

|--------------------------------------------------------------------------------|

|--------------------------------------------------------------------------------|

|--------------------------------------------------------------------------------|

|17b-17b-17b-17b~------10h12p10----------10----9-10-9~-10~-12~-12p10----------10~|

|----------------10h12----------12-10h12----12-----------------------12p10h12----|

|--------------------------------------------------------------------------------|

Am Bb G

[Repeat chorus]

Get this song at:  amazon.com sheetmusicplus.com

Share your thoughts

0 Comments found