Verdena

Verdena - Mormorio Mucoso guitar tab

MORMORIO MUCOSO

Verdena

From: Verdena Demotape, 1997

Tabbed by Denial Guitar (DenialGtr@hotmail.com)

Tune 1/2 step down (Eb Ab Db Gb Bb eb)

Intro

|----------|----------|----------|

|----------|----------|----------|

|-4-4------|----------|----------|

|-4-4--5-5-|-7-7--2-2-|----------|

|-2-2--5-5-|-7-7--2-2-|----------|

|------3-3-|-5-5--0-0-|----------|

Verse

|-------|-------|-------|-------|-------|-------|-------|---------------------|

|-------|-------|-------|-------|-------|-------|-------|---------------------|

|-4~----|-------|-------|-------|-------|-------|-------|4-4-4-4-4s16-16-16-16|

|-4~----|-------|-------|-------|-------|-------|-------|4-4-4-4-4s16-16-16-16|

|-2~----|-------|-------|-------|-------|-------|-------|2-2-2-2-2s14-14-14-14|

|-------|-------|-------|-------|-------|-------|-------|---------------------|

Come sai puoi vincere!

|-----------------|-----------------|

|-----------------|-----------------|

|-----------------|-----------------|

|-5-4-4-5-4-4-5-4-|-5-4-4-5-4-4-5-4-|

|-5-4-4-5-4-4-5-4-|-5-4-4-5-4-4-5-4-|

|-3-2-2-3-2-2-3-2-|-3-2-2-3-2-2-3-2-|

|-------|-------|-------|---------------------|

|-------|-------|-------|---------------------|

|-4~----|-------|-------|4-4-4-4-4s16-16-16-16|

|-4~----|-------|-------|4-4-4-4-4s16-16-16-16|

|-2~----|-------|-------|2-2-2-2-2s14-14-14-14|

|-------|-------|-------|---------------------|

così guardami so fingere!

|-----------------|-----------------|

|-----------------|-----------------|

|-----------------|-----------------|

|-5-4-4-5-4-4-5-4-|-5-4-4-5-4-4-5-4-|

|-5-4-4-5-4-4-5-4-|-5-4-4-5-4-4-5-4-|

|-3-2-2-3-2-2-3-2-|-3-2-2-3-2-2-3-2-|

Chorus

|-----------------|-----------------|

|-----------------|-----------------|

|-4-4-4-4-7-7-7-7-|-----------------|

|-4-4-4-4-7-7-7-7-|-5-5-5-5-4-4-4-4-|

|-2-2-2-2-5-5-5-5-|-5-5-5-5-4-4-4-4-|

|-----------------|-3-3-3-3-2-2-2-2-|

come sai non ho fame, come

vuoi lo so non fa male!

Verse 2 (the same as 1)

Guardami...puoi fendere

voli dentro me...so fingere

[Repeat chorus]

Bridge

|----------|----------|

|----------|----------|

|-4-4------|----------|

|-4-4--5-5-|-7-7~-----|

|-2-2--5-5-|-7-7~-----|

|------3-3-|-5-5~-----|

|-------------|-------------|

|-------------|-------------|

|-------------|-7--7--7--7--|

|-6--6--6--6--|-7--7--7--7--| (x6)

|-6--6--6--6--|-5--5--5--5--|

|-4--4--4--4--|-------------|

|-----------|-----------|

|-----------|-----------|

|-4-4-7-7-7-|-----------|

|-4-4-7-7-7-|-5-4-4-4-4-|

|-2-2-5-5-5-|-5-4-4-4-4-|

|-----------|-3-2-2-2-2-|

Chorus 3 (the same as other one but this lasts twice)

Come sai non ho fame

come vuoi lo so non fa male!

Come sai qui sto male

legami se vuoi non fa male!

Ending

|----------|-------------|

|----------|-------------|

|-4-4------|----------6b-|

|-4-4--5-5-|-7-7---------| (x2)

|-2-2--5-5-|-7-7---------|

|------3-3-|-5-5---------|

come sai

|----------|----------|

|----------|----------|

|-4-4------|----------|

|-4-4--5-5-|-7-7~-----|

|-2-2--5-5-|-7-7~-----|

|------3-3-|-5-5~-----|

Get this song at:  amazon.com sheetmusicplus.com

Share your thoughts

0 Comments found