Verdena

Verdena - Mina guitar tab

MINA

Verdena

Album: Il suicidio dei samurai, 2004

Tabbed by Denial Guitar (DenialGtr@hotmail.com)

Tune 1/2 step down (Eb Ab Db Gb Bb eb)

Intro

|------------------|------------------|------------------|------------------|

|-----11----11--11-|-----11----11--11-|-----11----11--11-|-----11----11--12-|

|---12----12-------|---12----12-------|---12----12-------|---12----12-------|

|-10----10----10---|------------------|------------------|------------------| (x4)

|------------------|------------------|-10----10----10---|-11----11----11---|

|------------------|-10----10----10---|------------------|------------------|

Verse 1

|------------------|------------------|------------------|------------------|

|-------11----11-11|-------11----11-11|-------11----11-11|-------11----11-11|

|----12----12------|----12----12------|----12----12------|----12----12------|

|-10---------------|------------------|------------------|------------------| (x2)

|------------------|------------------|-10---------------|-11---------------|

|------------------|-10---------------|------------------|------------------|

Eb

Oh mina

ho perso il

G#

controllo e dopo tutto

|------------------|------------------|

|-------11----11-11|-------11----11-11|

|----12----12------|----12----12------|

|-10---------------|------------------|

|------------------|------------------|

|------------------|-10---------------|

Cm Bb

non avrò che

|------------------|------------------|------------------|------------------|

|-------11----11-11|-------11----11-11|-------11----11-11|-------11----11-11|

|----12----12------|----12----12------|----12----12------|----12----12------|

|-10---------------|------------------|------------------|------------------| (x2)

|------------------|------------------|-10---------------|-11---------------|

|------------------|-10---------------|------------------|------------------|

Eb

pioggia aaah che cade con

G#

me e getto le ulti...

|------------------|------------------|

|-------11----11-11|-------11----11-11|

|----12----12------|----12----12------|

|-10---------------|------------------|

|------------------|------------------|

|------------------|-10---------------|

Cm Bb

me moleco...

Pre-chorus 1

|-------|-------|-------|-------|-------|-------|-------|-------|-------|-------|

|11-----|11-----|11-----|11-----|11-----|11-----|11-----|11-----|-------|-------|

|12-----|12-----|12-----|12-----|12-----|12-----|12-----|12-----|15-----|15-----|

|-x-(X8)|-x-(X8)|-x-(x8)|-x-(x8)|-x-(x8)|-x-(x8)|-x-(x8)|-x-(x8)|---(x8)|---(x8)|

|10-----|10-----|11-----|11-----|10-----|10-----|11-----|11-----|13-----|13-----|

|-------|-------|-------|-------|-------|-------|-------|-------|-------|-------|

Gm G# Gm G# Eb

le... contro... contro... contro... contro di te!

|----------|----------|----------|----------|

|----------|----------|----------|----------|

|-12-------|-12-------|-15-------|-17-------|

|-----(x8)-|-----(x8)-|-----(x8)-|-----(x8)-| (x2)

|-10-------|-10-------|-13-------|-15-------|

|----------|----------|----------|----------|

Cm Eb G#

Chorus 1

|----------|----------|----------|----------|

|----------|----------|----------|----------|

|-12-------|-12-------|-15-------|-17-------|

|-----(x8)-|-----(x8)-|-----(x8)-|-----(x8)-| (x3)

|-10-------|-10-------|-13-------|-15-------|

|----------|----------|----------|----------|

Cm Eb G#

E brucia, brucia con me l'aria

|----------|----------|----------|----------|

|----------|----------|----------|----------|

|-12-------|-12-------|-15-------|-15-------|

|-----(x8)-|-----(x8)-|-----(x8)-|-----(x8)-|

|-10-------|-10-------|-13-------|-13-------|

|----------|----------|----------|----------|

Cm Eb

E brucia, brucia con me!

Verse 2

|------------------|------------------|----------|----------|----------|----------|

|-----11----11--11-|-----11----11--11-|----------|----------|----------|----------|

|---12----12-------|---12----12-------|----------|----------|----------|----------|

|-10----10----10---|-10----10----10---|-10-------|----------|----------|----------|

|------------------|------------------|----------|----------|-10-------|-11-------|

|------------------|------------------|----------|-10-------|----------|----------|

Eb

O mina, Ferma e compo...

|------------------|------------------|------------------|------------------|

|-------11----11-11|-------11----11-11|-------11----11-11|-------11----11-11|

|----12----12------|----12----12------|----12----12------|----12----12------|

|-10---------------|------------------|------------------|------------------|

|------------------|------------------|-10---------------|-11---------------|

|------------------|-10---------------|------------------|------------------|

G#

sta, getto le ulti...

|------------------|------------------|

|-------11----11-11|-------11----11-11|

|----12----12------|----12----12------|

|-10---------------|------------------|

|------------------|------------------|

|------------------|-10---------------|

Cm Bb

me moleco...

Pre-chorus 2

|--------|--------|--------|--------|--------|--------|

|-11-----|-11-----|-11-----|-11-----|-11-----|-11-----|

|-12-----|-12-----|-12-----|-12-----|-12-----|-12-----|

|--x-(X8)|--x-(X8)|--x-(x8)|--x-(x8)|--x-(x8)|--x-(x8)|

|-10-----|-10-----|-11-----|-11-----|-10-----|-10-----|

|--------|--------|--------|--------|--------|--------|

Gm G# Gm

le... contro... contro di te!

Chorus 2

|----------|----------|----------|----------|

|----------|----------|----------|----------|

|-12-------|-12-------|-15-------|-17-------|

|-----(x8)-|-----(x8)-|-----(x8)-|-----(x8)-| (x3)

|-10-------|-10-------|-13-------|-15-------|

|----------|----------|----------|----------|

Cm Eb G#

E brucia, brucia con me l'aria

|----------|----------|----------|----------|----------|----------|

|----------|----------|----------|----------|----------|----------|

|-12-------|-12-------|-15-------|-15-------|-17-------|-17-------|

|-----(x8)-|-----(x8)-|-----(x8)-|-----(x8)-|-----(x8)-|-----(x8)-|

|-10-------|-10-------|-13-------|-13-------|-15-------|-15-------|

|----------|----------|----------|----------|----------|----------|

Cm Eb G#

E brucia, brucia con me... l'aria!

Solo (all x2)

|-----------------|-------------------|-----------------|-------------------|

|-15-16-15--------|-15-13-15-15b-13-13|-15-16-15--------|-15-13-15-15b-13-13|

|----------12~--12|-------------------|----------12~--12|-------------------|

|-----------------|-------------------|-----------------|-------------------|

|-----------------|-------------------|-----------------|-------------------|

|-----------------|-------------------|-----------------|-------------------|

Cm Eb

|-----------------|-------------------|-----------------|-------------------|

|-16-18-16--------|-15-13-15-15b-13-11|-13b~--13p11~----|-------------------|

|----------13~--13|-------------------|-----------------|-13~--12h13p12~----|

|-----------------|-------------------|-----------------|-------------------|

|-----------------|-------------------|-----------------|-------------------|

|-----------------|-------------------|-----------------|-------------------|

G# Bb

Coda

|-----------------|-------------------|-----------------|-------------------|

|-15-16-15--------|-15-13-15-15b-13-13|-15-16-15--------|-15-13-15-15b-13-13|

|----------12~--12|-------------------|----------12~--12|-------------------|

|-----------------|-------------------|-----------------|-------------------|

|-----------------|-------------------|-----------------|-------------------|

|-----------------|-------------------|-----------------|-------------------|

Cm Eb

|-----------------|-------------------|-----------------|---------------------|

|-16-18-16--------|-15-13-15-15b-13-15|-15-16-15-11---11|13-11-13-13b-11-13h15|

|----------13~--13|-------------------|-----------------|---------------------|

|-----------------|-------------------|-----------------|---------------------|

|-----------------|-------------------|-----------------|---------------------|

|-----------------|-------------------|-----------------|---------------------|

G# Bb

|-----------------|-------------------|-----------------|-------------------|

|-15-16-15--------|-15-13-15-15b-13-13|-15-16-15--------|-15-13-15-15b-13-13|

|----------12~--12|-------------------|----------12~--12|-------------------|

|-----------------|-------------------|-----------------|-------------------|

|-----------------|-------------------|-----------------|-------------------|

|-----------------|-------------------|-----------------|-------------------|

Cm Eb

|-----------------|-------------------|-----------------|-------------------|

|-16-18-16--------|-15-13-15-15b-13-15|-15-16-15-11---11|-13--16--15~-------|

|----------13~--13|-------------------|-----------------|-------------------|

|-----------------|-------------------|-----------------|-------------------|

|-----------------|-------------------|-----------------|-------------------|

|-----------------|-------------------|-----------------|-------------------|

G# Bb

Get this song at:  amazon.com sheetmusicplus.com

Share your thoughts

0 Comments found