Verdena

Verdena - Memo Box guitar tab

MEMO BOX

Verdena

From: Verdena demotape, 1997

Tabbed by Denial Guitar (DenialGtr@hotmail.com)

Tune 1/2 step down (Eb Ab Db Gb Bb eb)

Intro

|------------------------|

|---0---0---0---0------0-|

|-------------0------0---|

|------------------------| (x8)

|-7---7---7-------9b-----|

|------------------------|

|------------------|----------------------|------------------|----------------------|

|------------------|----------------------|------------------|----------------------|

|9-9s7-7s9-16-16-16|16s17-17-17-14-14-----|9-9s7-7s9-16-16-16|16s17-17-17-19-19-----|

|------------------|----------------------|------------------|----------------------|

|7-7s5-5s7-14-14-14|14s15-15-15-12-12-----|7-7s5-5s7-14-14-14|14s15-15-15-17-17-----|

|------------------|------------------15s3|------------------|------------------15s3|

Verse 1

|-----0-------|-----0--------------|

|-------0-----|-------0------------|

|-9---------4-|-4s5------5-5s7-7-7-|

|-------------|--------------------| (x2)

|-7---------2-|-2s3------3-3s5-5-5-|

|-------------|--------------------|

|-----0-------|-----0--------------|

|-------0-----|-------0------------|

|-9---------4-|-4s5------5-5s7-7-7-|

|-------------|--------------------| (x4)

|-7---------2-|-2s3------3-3s5-5-5-|

|-------------|--------------------|

Occhi neri tremano

me ne andrò

Rabbia in culo chiamami

ti troverò

|------------------------|

|---0---0---0---0------0-|

|-------------0------0---|

|------------------------| (x4)

|-7---7---7-------9b-----|

|------------------------|

|-----0-------|-----0--------------|

|-------0-----|-------0------------|

|-9---------4-|-4s5------5-5s7-7-7-|

|-------------|--------------------| (x4)

|-7---------2-|-2s3------3-3s5-5-5-|

|-------------|--------------------|

Padre infanga l'anima

vado via

Certo soffro e muoio io

madre mia... dimmi...

Chorus (all x2)

|---------------------|---------------------|---------------------|------------------|

|---------------------|---------------------|---------------------|------------------|

|9-9s7-7s9-11-11-11-11|9-9s7-7s9-11-11-11-11|9-9s7-7s9-11-11-11-11|-7--7--14-14-14-14|

|---------------------|---------------------|---------------------|------------------|

|7-7s5-5s7-9--9--9--9-|7-7s5-5s7-9--9--9--9-|7-7s5-5s7-9--9--9--9-|-5--5--12-12-12-12|

|---------------------|---------------------|---------------------|------------------|

che... dimmi che... dimmi che... dimmi che non hai paura!

come me... dimmi che... dimmi che non hai paura!

Verse 2

|------------------------|

|---0---0---0---0------0-|

|-------------0------0---|

|------------------------| (x4)

|-7---7---7-------9b-----|

|------------------------|

|-----0-------|-----0--------------|

|-------0-----|-------0------------|

|-9---------4-|-4s5------5-5s7-7-7-|

|-------------|--------------------| (x2)

|-7---------2-|-2s3------3-3s5-5-5-|

|-------------|--------------------|

|-----0-------|-----0--------------|

|-------0-----|-------0------------|

|-9---------4-|-4s5------5-5s7-7-7-|

|-------------|--------------------| (x4)

|-7---------2-|-2s3------3-3s5-5-5-|

|-------------|--------------------|

Cielo ho freddo coprimi

dove sei

Bocca calda baciami

morirei

[Repeat chorus]

Solo

|---------------------|----------------------|

|---------------------|----------------------|

|9s11-9-9-9-9-16-16-16|16s17-17-17-14-14-----|

|---------------------|----------------------|

|7s9--7-7-7-7-14-14-14|14s15-15-15-12-12-----|

|---------------------|------------------15s3|

|-----------------------|-----------------------------------|

|-----------------------|-----------------------------------|

|9s11-9-9-13-13-16-16-16|16s17-17-17-19-19-19-19-12-12-12-12|

|-----------------------|-----------------------------------|

|7s9--7-7-11-11-14-14-14|14s15-15-15-17-17-17-17-10-10-10-10|

|-----------------------|-----------------------------------|

|---------------------------|---------------------------|--------------|---------|

|---------------------------|---------------------------|--------------|---------|

|12-12-12-11-9-9-12-12-12-12|12-12-12-11-9-9-12-12-12-12|-4s5s4--4s5s4-|-9-------|

|---------------------------|---------------------------|--------------|----(x8)-|

|10-10-10-9--7-7-10-10-10-10|10-10-10-9--7-7-10-10-10-10|-2s3s2--2s3s2-|-7-------|

|---------------------------|---------------------------|--------------|---------|

|---------|----------|----------|----------|

|---------|----------|----------|----------|

|-9-------|-11-------|-12-------|-14-------|

|----(x8)-|-----(x8)-|-----(x8)-|-----(x8)-|

|-7-------|-9--------|-10-------|-12-------|

|---------|----------|----------|----------|

aaah! aaah! aaah! aaah!

[Repeat chorus]

Coda

|------------------------|

|---0---0---0---0------0-|

|-------------0------0---|

|------------------------| (x4)

|-7---7---7-------9b-----|

|------------------------|

|-0----------|

|-0----------|

|-0----------|

|-9----------|

|-7----------|

|------------|

Get this song at:  amazon.com sheetmusicplus.com

Share your thoughts

0 Comments found