Verdena

Verdena - Luna guitar tab

Song: Luna

Artist: Verdena

Album: Il suicidio dei samurai ('04)

Tabbed by Denial Guitar (webmaster at tabs-database.com.com)

Tune 1/2 step down (Eb Ab Db Gb Bb eb)

Intro

|---------------|-------------|---------------|-------------|

|-------7-----7-|-----7-----7-|-8-----8-----8-|-----8-----8-|

|---7-----7-----|-7-----7-----|---7-----7-----|-7-----7-----|

|---------------|-------------|---------------|-------------| (x2)

|-7---7-----7---|---7-----7---|-----7-----7---|---7-----7---|

|---------------|-------------|---------------|-------------|

(overdrive)

|---------------|-------------|

|-------3-----3-|-----3-----3-|

|---4-----4-----|-5-----5-----|

|---------------|-------------| (x2)

|-3---3-----3---|---3-----3---|

|---------------|-------------|

Verse 1

|---------------|-------------|---------------|-------------|

|-------7-----7-|-----7-----7-|-8-----8-----8-|-----8-----8-|

|---7-----7-----|-7-----7-----|---7-----7-----|-7-----7-----|

|---------------|-------------|---------------|-------------|

|-7---7-----7---|---7-----7---|-----7-----7---|---7-----7---|

|---------------|-------------|---------------|-------------|

Dipingimi distorto come un angelo anor...

|---------------|-------------|---------------|-------------|

|-------3-----3-|-----3-----3-|-------3-----3-|-----3-----3-|

|---4-----4-----|-5-----5-----|---4-----4-----|-5-----5-----|

|---------------|-------------|---------------|-------------|

|-3---3-----3---|---3-----3---|-3---3-----3---|---3-----3---|

|---------------|-------------|---------------|-------------|

male che cade

|---------------|-------------|---------------|-------------|

|-------7-----7-|-----7-----7-|-8-----8-----8-|-----8-----8-|

|---7-----7-----|-7-----7-----|---7-----7-----|-7-----7-----|

|---------------|-------------|---------------|-------------|

|-7---7-----7---|---7-----7---|-----7-----7---|---7-----7---|

|---------------|-------------|---------------|-------------|

Offendimi se odiare è un crimine il prezzo è

|---------------|-------------|---------------|-------------|

|-------3-----3-|-----3-----3-|-------3-----3-|-----3-----3-|

|---4-----4-----|-5-----5-----|---4-----4-----|-5-----5-----|

|---------------|-------------|---------------|-------------|

|-3---3-----3---|---3-----3---|-3---3-----3---|---3-----3---|

|---------------|-------------|---------------|-------------|

uguale e fa male

Chorus (x2)

|---------------|--------2-2-2-2|---------------|---------------|---------------|---------------|

|3-3-3-3-3-3-3-3|3-3-3-3-3-3-3-3|---------------|--------5-5-5-5|------0-------0|------0-------0|

|2-2-2-2-2-2-2-2|2-2-2-2-2-2-2-2|5-5-5-5-5-5-5-5|5-5-5-5-5-5-5-5|2-2-2-2-2-2-2-2|2-2-2-2-2-2-2-2|

|0-0-0-0-0-0-0-0|0-0-0-0-0-0-0-0|5-5-5-5-5-5-5-5|5-5-5-5-5-5-5-5|2-2-2-2-2-2-2-2|2-2-2-2-2-2-2-2|

|---------------|---------------|3-3-3-3-3-3-3-3|3-3-3-3-3-3-3-3|0-0-0-0-0-0-0-0|0-0-0-0-0-0-0-0|

|---------------|---------------|---------------|---------------|---------------|---------------|

Ve... ...do te io e te

Niente conta in fondo

Verse 2

Illumina, annulla le paure o Luna

Nulla è uguale

Sarò così onesto come se tu fossi

Il mare, il mare

Chorus 2

Vedo te, io e te

Niente conta, e crolla...

Solo

|-----------|-------|------7-|-10-7-10-7-|-10/12b~--12-12|---------------------|

|-----------|-------|-8-10---|-----------|---------------|-12-12-12-12-13-12---|

|-----------|---7-9-|--------|-----------|---------------|-12-12-12-12-------14|

|-------5-7-|-9-----|--------|-----------|---------------|---------------------|

|-----7-----|-------|--------|-----------|---------------|---------------------|

|-----------|-------|--------|-----------|---------------|---------------------|

...crolla!

|--------------------|-------------|---------|-----------|---------|-----------|

|----12--------------|-------------|-------12|-----------|-------12|-----------|

|-14----14-12--14-11-|-12-9-9h11p9-|-14-12---|11-11h12p11|-14-12---|11-11h12p11|

|--------------------|-------------|---------|-----------|---------|-----------|

|--------------------|-------------|---------|-----------|---------|-----------|

|--------------------|-------------|---------|-----------|---------|-----------|

|-----------|--------------------|-------------------|-------------------------|

|-----------|------12------14----|---15-------17-----|----19-------20-------20~|

|9h11--12p11|9~--9----9/11----11/|12----12/14----14b~|-16----16/17----17-17----|

|-----------|--------------------|-------------------|-------------------------|

|-----------|--------------------|-------------------|-------------------------|

[Repeat chorus 1]

Ending

|---------------|-------------|---------------|-------------| |-----|

|-------7-----7-|-----7-----7-|-8-----8-----8-|-----8-----8-| |--7--|

|---7-----7-----|-7-----7-----|---7-----7-----|-7-----7-----| |--7--|

|---------------|-------------|---------------|-------------| (x2) |--9--|

|-7---7-----7---|---7-----7---|-----7-----7---|---7-----7---| |--7--|

|---------------|-------------|---------------|-------------| |-----|

Added by tabs-database.com and our distinguished partners

Get this song at:  amazon.com sheetmusicplus.com

Share your thoughts

0 Comments found